  0
SECTION
  2
HEADER
  9
$ACADVER
  1
AC1014
  9
$ACADMAINTVER
 70
     0
  9
$DWGCODEPAGE
  3
ANSI_1252
  9
$INSBASE
 10
0.0
 20
0.0
 30
0.0
  9
$EXTMIN
 10
0.0
 20
0.0
 30
0.0
  9
$EXTMAX
 10
297.0
 20
210.0
 30
0.0
  9
$LIMMIN
 10
0.0
 20
0.0
  9
$LIMMAX
 10
12.0
 20
9.0
  9
$ORTHOMODE
 70
     0
  9
$REGENMODE
 70
     1
  9
$FILLMODE
 70
     0
  9
$QTEXTMODE
 70
     0
  9
$MIRRTEXT
 70
     1
  9
$DRAGMODE
 70
     2
  9
$LTSCALE
 40
1.0
  9
$OSMODE
 70
    37
  9
$ATTMODE
 70
     1
  9
$TEXTSIZE
 40
0.2
  9
$TRACEWID
 40
0.05
  9
$TEXTSTYLE
  7
STANDARD
  9
$CLAYER
  8
0
  9
$CELTYPE
  6
BYLAYER
  9
$CECOLOR
 62
   256
  9
$CELTSCALE
 40
1.0
  9
$DELOBJ
 70
     1
  9
$DISPSILH
 70
     0
  9
$DIMSCALE
 40
1.0
  9
$DIMASZ
 40
0.18
  9
$DIMEXO
 40
0.0625
  9
$DIMDLI
 40
0.38
  9
$DIMRND
 40
0.0
  9
$DIMDLE
 40
0.0
  9
$DIMEXE
 40
0.18
  9
$DIMTP
 40
0.0
  9
$DIMTM
 40
0.0
  9
$DIMTXT
 40
0.18
  9
$DIMCEN
 40
0.09
  9
$DIMTSZ
 40
0.0
  9
$DIMTOL
 70
     0
  9
$DIMLIM
 70
     0
  9
$DIMTIH
 70
     0
  9
$DIMTOH
 70
     0
  9
$DIMSE1
 70
     0
  9
$DIMSE2
 70
     0
  9
$DIMTAD
 70
     1
  9
$DIMZIN
 70
     0
  9
$DIMBLK
  1

  9
$DIMASO
 70
     1
  9
$DIMSHO
 70
     1
  9
$DIMPOST
  1

  9
$DIMAPOST
  1

  9
$DIMALT
 70
     0
  9
$DIMALTD
 70
     2
  9
$DIMALTF
 40
25.4
  9
$DIMLFAC
 40
1.0
  9
$DIMTOFL
 70
     0
  9
$DIMTVP
 40
0.0
  9
$DIMTIX
 70
     0
  9
$DIMSOXD
 70
     0
  9
$DIMSAH
 70
     0
  9
$DIMBLK1
  1

  9
$DIMBLK2
  1

  9
$DIMSTYLE
  2
STANDARD
  9
$DIMCLRD
 70
     0
  9
$DIMCLRE
 70
     0
  9
$DIMCLRT
 70
     0
  9
$DIMTFAC
 40
1.0
  9
$DIMGAP
 40
0.09
  9
$DIMJUST
 70
     0
  9
$DIMSD1
 70
     0
  9
$DIMSD2
 70
     0
  9
$DIMTOLJ
 70
     1
  9
$DIMTZIN
 70
     0
  9
$DIMALTZ
 70
     0
  9
$DIMALTTZ
 70
     0
  9
$DIMFIT
 70
     5
  9
$DIMUPT
 70
     0
  9
$DIMUNIT
 70
     2
  9
$DIMDEC
 70
     2
  9
$DIMTDEC
 70
     4
  9
$DIMALTU
 70
     2
  9
$DIMALTTD
 70
     2
  9
$DIMTXSTY
  7
STANDARD
  9
$DIMAUNIT
 70
     0
  9
$LUNITS
 70
     2
  9
$LUPREC
 70
     4
  9
$SKETCHINC
 40
0.1
  9
$FILLETRAD
 40
0.5
  9
$AUNITS
 70
     0
  9
$AUPREC
 70
     0
  9
$MENU
  1
.
  9
$ELEVATION
 40
0.0
  9
$PELEVATION
 40
0.0
  9
$THICKNESS
 40
0.0
  9
$LIMCHECK
 70
     0
  9
$BLIPMODE
 70
     0
  9
$CHAMFERA
 40
0.5
  9
$CHAMFERB
 40
0.5
  9
$CHAMFERC
 40
1.0
  9
$CHAMFERD
 40
0.0
  9
$SKPOLY
 70
     0
  9
$TDCREATE
 40
2450772.666465926
  9
$TDUPDATE
 40
2457245.830416667
  9
$TDINDWG
 40
0.0011565046
  9
$TDUSRTIMER
 40
0.0011565046
  9
$USRTIMER
 70
     1
  9
$ANGBASE
 50
0.0
  9
$ANGDIR
 70
     0
  9
$PDMODE
 70
     0
  9
$PDSIZE
 40
0.0
  9
$PLINEWID
 40
0.0
  9
$COORDS
 70
     1
  9
$SPLFRAME
 70
     0
  9
$SPLINETYPE
 70
     6
  9
$SPLINESEGS
 70
     8
  9
$ATTDIA
 70
     0
  9
$ATTREQ
 70
     1
  9
$HANDLING
 70
     1
  9
$HANDSEED
  5
E9
  9
$SURFTAB1
 70
     6
  9
$SURFTAB2
 70
     6
  9
$SURFTYPE
 70
     6
  9
$SURFU
 70
     6
  9
$SURFV
 70
     6
  9
$UCSNAME
  2

  9
$UCSORG
 10
0.0
 20
0.0
 30
0.0
  9
$UCSXDIR
 10
1.0
 20
0.0
 30
0.0
  9
$UCSYDIR
 10
0.0
 20
1.0
 30
0.0
  9
$PUCSNAME
  2

  9
$PUCSORG
 10
0.0
 20
0.0
 30
0.0
  9
$PUCSXDIR
 10
1.0
 20
0.0
 30
0.0
  9
$PUCSYDIR
 10
0.0
 20
1.0
 30
0.0
  9
$USERI1
 70
     0
  9
$USERI2
 70
     0
  9
$USERI3
 70
     0
  9
$USERI4
 70
     0
  9
$USERI5
 70
     0
  9
$USERR1
 40
0.0
  9
$USERR2
 40
0.0
  9
$USERR3
 40
0.0
  9
$USERR4
 40
0.0
  9
$USERR5
 40
0.0
  9
$WORLDVIEW
 70
     1
  9
$SHADEDGE
 70
     3
  9
$SHADEDIF
 70
    70
  9
$TILEMODE
 70
     1
  9
$MAXACTVP
 70
    48
  9
$PINSBASE
 10
0.0
 20
0.0
 30
0.0
  9
$PLIMCHECK
 70
     0
  9
$PEXTMIN
 10
0.0
 20
0.0
 30
0.0
  9
$PEXTMAX
 10
0.0
 20
0.0
 30
0.0
  9
$PLIMMIN
 10
0.0
 20
0.0
  9
$PLIMMAX
 10
12.0
 20
9.0
  9
$UNITMODE
 70
     0
  9
$VISRETAIN
 70
     1
  9
$PLINEGEN
 70
     0
  9
$PSLTSCALE
 70
     1
  9
$TREEDEPTH
 70
  3020
  9
$PICKSTYLE
 70
     1
  9
$CMLSTYLE
  2
STANDARD
  9
$CMLJUST
 70
     0
  9
$CMLSCALE
 40
1.0
  9
$PROXYGRAPHICS
 70
     1
  9
$MEASUREMENT
 70
     0
  0
ENDSEC
  0
SECTION
  2
CLASSES
  0
CLASS
  1
LWPOLYLINE
  2
AcDbPolyline
  3
AutoCAD 2000
 90
       20
280
     0
281
     1
  0
CLASS
  1
IMAGE
  2
AcDbRasterImage
  3
ISM
 90
       21
280
     0
281
     1
  0
CLASS
  1
OLE2FRAME
  2
AcDbOle2Frame
  3
AutoCAD 2000
 90
       21
280
     0
281
     1
  0
CLASS
  1
HATCH
  2
AcDbHatch
  3
AutoCAD 2000
 90
       20
280
     0
281
     1
  0
CLASS
  1
DICTIONARYVAR
  2
AcDbDictionaryVar
  3
ObjectDBX Classes
 90
       20
280
     0
281
     0
  0
CLASS
  1
RASTERVARIABLES
  2
AcDbRasterVariables
  3
ISM
 90
       21
280
     0
281
     0
  0
CLASS
  1
IMAGEDEF
  2
AcDbRasterImageDef
  3
ISM
 90
       21
280
     0
281
     0
  0
CLASS
  1
IMAGEDEF_REACTOR
  2
AcDbRasterImageDefReactor
  3
ISM
 90
       21
280
     0
281
     0
  0
CLASS
  1
IDBUFFER
  2
AcDbIdBuffer
  3
ObjectDBX Classes
 90
       20
280
     0
281
     0
  0
CLASS
  1
SPATIAL_FILTER
  2
AcDbSpatialFilter
  3
ObjectDBX Classes
 90
       20
280
     0
281
     0
  0
CLASS
  1
XRECORD
  2
AcDbXrecord
  3
AutoCAD 2000
 90
       21
280
     0
281
     0
  0
CLASS
  1
SORTENTSTABLE
  2
AcDbSortentsTable
  3
"AutoCAD"
 90
        0
280
     0
281
     0
  0
CLASS
  1
LAYER_INDEX
  2
AcDbLayerIndex
  3
"Acad"
 90
        0
280
     0
281
     0
  0
CLASS
  1
SPATIAL_INDEX
  2
AcDbSpatialIndex
  3
"Acad"
 90
        0
280
     0
281
     0
  0
CLASS
  1
OBJECT_PTR
  2
CAseDLPNTableRecord
  3
"ASE-LPNTableRecord"
 90
        1
280
     0
281
     0
  0
CLASS
  1
LAYOUT
  2
AcDbLayout
  3
"AutoCAD 2000"
 90
        1
280
     0
281
     0
  0
CLASS
  1
PLOTSETTINGS
  2
AcDbPlotsettings
  3
"AutoCAD 2000"
 90
        1
280
     0
281
     0
  0
CLASS
  1
ACDBDICTIONARYWDFLT
  2
AcDbDictionaryWithDefault
  3
"AutoCAD 2000"
 90
        1
280
     0
281
     0
  0
CLASS
  1
ACDBPLACEHOLDER
  2
AcDbPlaceholder
  3
"AutoCAD 2000"
 90
        1
280
     0
281
     0
  0
CLASS
  1
VBA_PROJECT
  2
AcDbVbaProject
  3
"AutoCAD 2000"
 90
        1
280
     0
281
     0
  0
CLASS
  1
WIPEOUT
  2
AcDbWipeout
  3
"AutoCAD 2000"
 90
        1
280
     0
281
     1
  0
CLASS
  1
WIPEOUTVARIABLES
  2
AcDbWipeoutVariables
  3
"AutoCAD 2000"
 90
        1
280
     0
281
     0
  0
CLASS
  1
RTEXT
  2
RText
  3
RText|AutoCAD Express Tool|expresstools@autodesk.com
 90
        1
280
     0
281
     1
  0
CLASS
  1
ARCALIGNEDTEXT
  2
AcDbArcAlignedText
  3
RText|AutoCAD Express Tool|expresstools@autodesk.com
 90
        1
280
     0
281
     1
  0
ENDSEC
  0
SECTION
  2
TABLES
  0
TABLE
  2
VPORT
  5
8
100
AcDbSymbolTable
 70
     1
  0
VPORT
  5
25
100
AcDbSymbolTableRecord
100
AcDbViewportTableRecord
  2
*ACTIVE
 70
     0
 10
0.0
 20
0.0
 11
1.0
 21
1.0
 12
148.5
 22
105.0
 13
0.0
 23
0.0
 14
0.5
 24
0.5
 15
0.5
 25
0.5
 16
0.0
 26
0.0
 36
1.0
 17
0.0
 27
0.0
 37
0.0
 40
210.0
 41
1.414286
 42
50.0
 43
0.0
 44
0.0
 50
0.0
 51
0.0
 71
     0
 72
   100
 73
     1
 74
     1
 75
     0
 76
     0
 77
     0
 78
     0
  0
ENDTAB
  0
TABLE
  2
LTYPE
  5
5
100
AcDbSymbolTable
 70
     3
  0
LTYPE
  5
12
100
AcDbSymbolTableRecord
100
AcDbLinetypeTableRecord
  2
BYBLOCK
 70
     0
  3

 72
    65
 73
     0
 40
0.0
  0
LTYPE
  5
13
100
AcDbSymbolTableRecord
100
AcDbLinetypeTableRecord
  2
BYLAYER
 70
     0
  3

 72
    65
 73
     0
 40
0.0
  0
LTYPE
  5
14
100
AcDbSymbolTableRecord
100
AcDbLinetypeTableRecord
  2
CONTINUOUS
 70
     0
  3
Solid line
 72
    65
 73
     0
 40
0.0
  0
ENDTAB
  0
TABLE
  2
LAYER
  5
2
100
AcDbSymbolTable
 70
     1
  0
LAYER
  5
E
100
AcDbSymbolTableRecord
100
AcDbLayerTableRecord
  2
0
 70
     0
 62
     7
  6
CONTINUOUS
  0
ENDTAB
  0
TABLE
  2
STYLE
  5
3
100
AcDbSymbolTable
 70
     1
  0
STYLE
  5
F
100
AcDbSymbolTableRecord
100
AcDbTextStyleTableRecord
  2
STANDARD
 70
     0
 40
0.0
 41
1.0
 50
0.0
 71
     0
 42
0.2
  3
txt.shx
  4

  0
ENDTAB
  0
TABLE
  2
VIEW
  5
6
100
AcDbSymbolTable
 70
     0
  0
ENDTAB
  0
TABLE
  2
UCS
  5
7
100
AcDbSymbolTable
 70
     0
  0
ENDTAB
  0
TABLE
  2
APPID
  5
9
100
AcDbSymbolTable
 70
     1
  0
APPID
  5
10
100
AcDbSymbolTableRecord
100
AcDbRegAppTableRecord
  2
ACAD
 70
     0
  0
ENDTAB
  0
TABLE
  2
DIMSTYLE
  5
A
100
AcDbSymbolTable
 70
     1
  0
DIMSTYLE
105
1D
100
AcDbSymbolTableRecord
100
AcDbDimStyleTableRecord
  2
STANDARD
 70
     0
  3

  4

  5

  6

  7

 40
1.0
 41
0.18
 42
0.0625
 43
0.38
 44
0.18
 45
0.0
 46
0.0
 47
0.0
 48
0.0
 71
     0
 72
     0
 73
     1
 74
     1
 75
     0
 76
     0
 77
     0
 78
     0
140
0.18
141
0.09
142
0.0
143
25.4
144
1.0
145
0.0
146
1.0
147
0.09
170
     0
171
     2
172
     0
173
     0
174
     0
175
     0
176
     0
177
     0
178
     0
270
     2
271
     4
272
     4
273
     2
274
     2
275
     0
280
     0
281
     0
282
     0
283
     1
284
     0
285
     0
286
     0
287
     3
288
     0
340
F
  0
ENDTAB
  0
TABLE
  2
BLOCK_RECORD
  5
1
100
AcDbSymbolTable
 70
     4
  0
BLOCK_RECORD
  5
18
100
AcDbSymbolTableRecord
100
AcDbBlockTableRecord
  2
*MODEL_SPACE
  0
BLOCK_RECORD
  5
15
100
AcDbSymbolTableRecord
100
AcDbBlockTableRecord
  2
*PAPER_SPACE
  0
BLOCK_RECORD
  5
39
100
AcDbSymbolTableRecord
100
AcDbBlockTableRecord
  2
FELD
  0
BLOCK_RECORD
  5
3E
100
AcDbSymbolTableRecord
100
AcDbBlockTableRecord
  2
KREIS
  0
BLOCK_RECORD
  5
43
100
AcDbSymbolTableRecord
100
AcDbBlockTableRecord
  2
RASPBERRY_PI_LOGO
  0
BLOCK_RECORD
  5
E6
100
AcDbSymbolTableRecord
100
AcDbBlockTableRecord
  2
RASPI-PGB001
  0
ENDTAB
  0
ENDSEC
  0
SECTION
  2
BLOCKS
  0
BLOCK
  5
19
100
AcDbEntity
  8
0
100
AcDbBlockBegin
  2
*MODEL_SPACE
 70
     0
 10
0.0
 20
0.0
 30
0.0
  3
*MODEL_SPACE
  1

  0
ENDBLK
  5
1A
100
AcDbEntity
  8
0
100
AcDbBlockEnd
  0
BLOCK
  5
16
100
AcDbEntity
 67
     1
  8
0
100
AcDbBlockBegin
  2
*PAPER_SPACE
 70
     0
 10
0.0
 20
0.0
 30
0.0
  3
*PAPER_SPACE
  1

  0
ENDBLK
  5
17
100
AcDbEntity
 67
     1
  8
0
100
AcDbBlockEnd
  0
BLOCK
  5
3A
100
AcDbEntity
  8
0
100
AcDbBlockBegin
  2
FELD
 70
     0
 10
0.0
 20
0.0
 30
0.0
  3
FELD
  1

  0
LWPOLYLINE
  5
3B
102
{ACAD_REACTORS
330
3C
102
}
100
AcDbEntity
  8
0
  6
CONTINUOUS
 62
     7
100
AcDbPolyline
 90
        4
 70
     1
 10
30.0
 20
35.0
 10
70.0
 20
35.0
 10
70.0
 20
65.0
 10
30.0
 20
65.0
  0
HATCH
  5
3C
100
AcDbEntity
  8
0
 62
   254
100
AcDbHatch
 10
0.0
 20
0.0
 30
0.0
210
0.0
220
0.0
230
1.0
  2
SOLID
 70
     1
 71
     1
 91
        1
 92
        3
 72
     0
 73
     1
 93
        4
 10
30.0
 20
34.999999999999993
 10
70.0
 20
34.999999999999993
 10
70.0
 20
65.0
 10
30.0
 20
65.0
 97
        1
330
3B
 75
     0
 76
     1
 98
        0
  0
ENDBLK
  5
3D
100
AcDbEntity
  8
0
100
AcDbBlockEnd
  0
BLOCK
  5
3F
100
AcDbEntity
  8
0
100
AcDbBlockBegin
  2
KREIS
 70
     0
 10
0.0
 20
0.0
 30
0.0
  3
KREIS
  1

  0
LWPOLYLINE
  5
40
102
{ACAD_REACTORS
330
41
102
}
100
AcDbEntity
  8
0
  6
CONTINUOUS
 62
     7
100
AcDbPolyline
 90
        2
 70
     1
 10
35.0
 20
50.0
 42
-1.0
 10
65.0
 20
50.0
 42
-1.0
  0
HATCH
  5
41
100
AcDbEntity
  8
0
 62
   254
100
AcDbHatch
 10
0.0
 20
0.0
 30
0.0
210
0.0
220
0.0
230
1.0
  2
SOLID
 70
     1
 71
     1
 91
        1
 92
        3
 72
     1
 73
     1
 93
        2
 10
34.999999999999993
 20
50.0
 42
-0.9999999999999999
 10
65.0
 20
50.0
 42
-1.0000000000000071
 97
        1
330
40
 75
     0
 76
     1
 98
        0
  0
ENDBLK
  5
42
100
AcDbEntity
  8
0
100
AcDbBlockEnd
  0
BLOCK
  5
44
100
AcDbEntity
  8
0
100
AcDbBlockBegin
  2
RASPBERRY_PI_LOGO
 70
     0
 10
0.0
 20
0.0
 30
0.0
  3
RASPBERRY_PI_LOGO
  1

  0
SPLINE
  5
45
102
{ACAD_REACTORS
330
74
102
}
100
AcDbEntity
  8
0
  6
CONTINUOUS
 62
     7
100
AcDbSpline
210
0.0
220
0.0
230
1.0
 70
     8
 71
     3
 72
     8
 73
     4
 74
     0
 42
0.0000001
 43
0.0000001
 40
0.0
 40
0.0
 40
0.0
 40
0.0
 40
1.0
 40
1.0
 40
1.0
 40
1.0
 10
74.034346982456881
 20
277.82158428771925
 30
0.0
 10
72.663457736841124
 20
277.77904062456201
 30
0.0
 10
71.187042631579672
 20
277.27263012982462
 30
0.0
 10
69.512567684211092
 20
275.95139788421125
 30
0.0
  0
SPLINE
  5
46
102
{ACAD_REACTORS
330
74
102
}
100
AcDbEntity
  8
0
  6
CONTINUOUS
 62
     7
100
AcDbSpline
210
0.0
220
0.0
230
1.0
 70
     8
 71
     3
 72
     8
 73
     4
 74
     0
 42
0.0000001
 43
0.0000001
 40
0.0
 40
0.0
 40
0.0
 40
0.0
 40
1.0
 40
1.0
 40
1.0
 40
1.0
 10
69.512567684211092
 20
275.95139788421125
 30
0.0
 10
65.410467684210886
 20
277.5332630947359
 30
0.0
 10
61.433362421051605
 20
278.08278541052692
 30
0.0
 10
57.876693999999794
 20
274.86239070877076
 30
0.0
  0
SPLINE
  5
47
102
{ACAD_REACTORS
330
74
102
}
100
AcDbEntity
  8
0
  6
CONTINUOUS
 62
     7
100
AcDbSpline
210
0.0
220
0.0
230
1.0
 70
     8
 71
     3
 72
     8
 73
     4
 74
     0
 42
0.0000001
 43
0.0000001
 40
0.0
 40
0.0
 40
0.0
 40
0.0
 40
1.0
 40
1.0
 40
1.0
 40
1.0
 10
57.876693999999794
 20
274.86239070877076
 30
0.0
 10
52.384501017543073
 20
275.57478495438465
 30
0.0
 10
50.599727684211004
 20
274.10477109473601
 30
0.0
 10
49.247511894736952
 20
272.38855548070228
 30
0.0
  0
SPLINE
  5
48
102
{ACAD_REACTORS
330
74
102
}
100
AcDbEntity
  8
0
  6
CONTINUOUS
 62
     7
100
AcDbSpline
210
0.0
220
0.0
230
1.0
 70
     8
 71
     3
 72
     8
 73
     4
 74
     0
 42
0.0000001
 43
0.0000001
 40
0.0
 40
0.0
 40
0.0
 40
0.0
 40
1.0
 40
1.0
 40
1.0
 40
1.0
 10
49.247511894736952
 20
272.38855548070228
 30
0.0
 10
48.041880842104561
 20
272.41355442807009
 30
0.0
 10
40.225543298246237
 20
273.62789723508649
 30
0.0
 10
36.641224526314765
 20
268.28115267368361
 30
0.0
  0
SPLINE
  5
49
102
{ACAD_REACTORS
330
74
102
}
100
AcDbEntity
  8
0
  6
CONTINUOUS
 62
     7
100
AcDbSpline
210
0.0
220
0.0
230
1.0
 70
     8
 71
     3
 72
     8
 73
     4
 74
     0
 42
0.0000001
 43
0.0000001
 40
0.0
 40
0.0
 40
0.0
 40
0.0
 40
1.0
 40
1.0
 40
1.0
 40
1.0
 10
36.641224526314765
 20
268.28115267368361
 30
0.0
 10
27.633649263157938
 20
269.34701688420955
 30
0.0
 10
24.786799438596464
 20
262.98289091929922
 30
0.0
 10
28.012421192982405
 20
257.04829232280713
 30
0.0
  0
SPLINE
  5
4A
102
{ACAD_REACTORS
330
74
102
}
100
AcDbEntity
  8
0
  6
CONTINUOUS
 62
     7
100
AcDbSpline
210
0.0
220
0.0
230
1.0
 70
     8
 71
     3
 72
     8
 73
     4
 74
     0
 42
0.0000001
 43
0.0000001
 40
0.0
 40
0.0
 40
0.0
 40
0.0
 40
1.0
 40
1.0
 40
1.0
 40
1.0
 10
28.012421192982405
 20
257.04829232280713
 30
0.0
 10
26.17276380701756
 20
254.20030618245562
 30
0.0
 10
24.266556192982453
 20
251.38678828772072
 30
0.0
 10
28.568761403508837
 20
245.95747144561329
 30
0.0
  0
SPLINE
  5
4B
102
{ACAD_REACTORS
330
74
102
}
100
AcDbEntity
  8
0
  6
CONTINUOUS
 62
     7
100
AcDbSpline
210
0.0
220
0.0
230
1.0
 70
     8
 71
     3
 72
     8
 73
     4
 74
     0
 42
0.0000001
 43
0.0000001
 40
0.0
 40
0.0
 40
0.0
 40
0.0
 40
1.0
 40
1.0
 40
1.0
 40
1.0
 10
28.568761403508837
 20
245.95747144561329
 30
0.0
 10
27.0468557894736
 20
242.93354574385995
 30
0.0
 10
27.990225157894834
 20
239.65319144561411
 30
0.0
 10
31.575263596490181
 20
235.68328284912332
 30
0.0
  0
SPLINE
  5
4C
102
{ACAD_REACTORS
330
74
102
}
100
AcDbEntity
  8
0
  6
CONTINUOUS
 62
     7
100
AcDbSpline
210
0.0
220
0.0
230
1.0
 70
     8
 71
     3
 72
     8
 73
     4
 74
     0
 42
0.0000001
 43
0.0000001
 40
0.0
 40
0.0
 40
0.0
 40
0.0
 40
1.0
 40
1.0
 40
1.0
 40
1.0
 10
31.575263596490181
 20
235.68328284912332
 30
0.0
 10
30.629129192983559
 20
231.43232548070191
 30
0.0
 10
32.488899368421116
 20
228.4332093403502
 30
0.0
 10
35.824705877193914
 20
226.0958077614043
 30
0.0
  0
SPLINE
  5
4D
102
{ACAD_REACTORS
330
74
102
}
100
AcDbEntity
  8
0
  6
CONTINUOUS
 62
     7
100
AcDbSpline
210
0.0
220
0.0
230
1.0
 70
     8
 71
     3
 72
     8
 73
     4
 74
     0
 42
0.0000001
 43
0.0000001
 40
0.0
 40
0.0
 40
0.0
 40
0.0
 40
1.0
 40
1.0
 40
1.0
 40
1.0
 10
35.824705877193914
 20
226.0958077614043
 30
0.0
 10
35.200830631579471
 20
220.27862846315671
 30
0.0
 10
41.15932973684184
 20
216.89657390175546
 30
0.0
 10
42.938421491228468
 20
215.6913216210514
 30
0.0
  0
SPLINE
  5
4E
102
{ACAD_REACTORS
330
74
102
}
100
AcDbEntity
  8
0
  6
CONTINUOUS
 62
     7
100
AcDbSpline
210
0.0
220
0.0
230
1.0
 70
     8
 71
     3
 72
     8
 73
     4
 74
     0
 42
0.0000001
 43
0.0000001
 40
0.0
 40
0.0
 40
0.0
 40
0.0
 40
1.0
 40
1.0
 40
1.0
 40
1.0
 10
42.938421491228468
 20
215.6913216210514
 30
0.0
 10
43.621612421053378
 20
212.30180525263066
 30
0.0
 10
45.045491859648912
 20
209.10334144561415
 30
0.0
 10
51.851303771929047
 20
207.33485530526431
 30
0.0
  0
SPLINE
  5
4F
102
{ACAD_REACTORS
330
74
102
}
100
AcDbEntity
  8
0
  6
CONTINUOUS
 62
     7
100
AcDbSpline
210
0.0
220
0.0
230
1.0
 70
     8
 71
     3
 72
     8
 73
     4
 74
     0
 42
0.0000001
 43
0.0000001
 40
0.0
 40
0.0
 40
0.0
 40
0.0
 40
1.0
 40
1.0
 40
1.0
 40
1.0
 10
51.851303771929047
 20
207.33485530526431
 30
0.0
 10
52.973680754386073
 20
202.28355284912195
 30
0.0
 10
57.063963070174388
 20
201.41124109473756
 30
0.0
 10
61.024781140349745
 20
200.35105846315909
 30
0.0
  0
SPLINE
  5
50
102
{ACAD_REACTORS
330
74
102
}
100
AcDbEntity
  8
0
  6
CONTINUOUS
 62
     7
100
AcDbSpline
210
0.0
220
0.0
230
1.0
 70
     8
 71
     3
 72
     8
 73
     4
 74
     0
 42
0.0000001
 43
0.0000001
 40
0.0
 40
0.0
 40
0.0
 40
0.0
 40
1.0
 40
1.0
 40
1.0
 40
1.0
 10
61.024781140349745
 20
200.35105846315909
 30
0.0
 10
47.93366570175538
 20
192.74153039298119
 30
0.0
 10
36.707244473684575
 20
182.729451971929
 30
0.0
 10
36.783377631578176
 20
158.16344091929693
 30
0.0
  0
LINE
  5
51
102
{ACAD_REACTORS
330
74
102
}
100
AcDbEntity
  8
0
  6
CONTINUOUS
 62
     7
100
AcDbLine
 10
36.783378
 20
158.163441
 30
0.0
 11
34.865845
 21
154.742676
 31
0.0
  0
SPLINE
  5
52
102
{ACAD_REACTORS
330
74
102
}
100
AcDbEntity
  8
0
  6
CONTINUOUS
 62
     7
100
AcDbSpline
210
0.0
220
0.0
230
1.0
 70
     8
 71
     3
 72
     8
 73
     4
 74
     0
 42
0.0000001
 43
0.0000001
 40
0.0
 40
0.0
 40
0.0
 40
0.0
 40
1.0
 40
1.0
 40
1.0
 40
1.0
 10
34.865844736842995
 20
154.7426758666671
 30
0.0
 10
19.855113157894699
 20
145.61427235789452
 30
0.0
 10
6.3499999999999979
 20
116.27459867368339
 30
0.0
 10
27.468428947368373
 20
92.427117971930727
 30
0.0
  0
SPLINE
  5
53
102
{ACAD_REACTORS
330
74
102
}
100
AcDbEntity
  8
0
  6
CONTINUOUS
 62
     7
100
AcDbSpline
210
0.0
220
0.0
230
1.0
 70
     8
 71
     3
 72
     8
 73
     4
 74
     0
 42
0.0000001
 43
0.0000001
 40
0.0
 40
0.0
 40
0.0
 40
0.0
 40
1.0
 40
1.0
 40
1.0
 40
1.0
 10
27.468428947368373
 20
92.427117971930727
 30
0.0
 10
28.847878438596371
 20
84.962280778948482
 30
0.0
 10
31.161303754386172
 20
79.600385340350158
 30
0.0
 10
33.221217017542834
 20
73.66616551579078
 30
0.0
  0
SPLINE
  5
54
102
{ACAD_REACTORS
330
74
102
}
100
AcDbEntity
  8
0
  6
CONTINUOUS
 62
     7
100
AcDbSpline
210
0.0
220
0.0
230
1.0
 70
     8
 71
     3
 72
     8
 73
     4
 74
     0
 42
0.0000001
 43
0.0000001
 40
0.0
 40
0.0
 40
0.0
 40
0.0
 40
1.0
 40
1.0
 40
1.0
 40
1.0
 10
33.221217017542834
 20
73.66616551579078
 30
0.0
 10
36.302072140351875
 20
49.753914814033969
 30
0.0
 10
56.40887701754297
 20
38.557037796490775
 30
0.0
 10
61.712062807018135
 20
37.232851129824695
 30
0.0
  0
SPLINE
  5
55
102
{ACAD_REACTORS
330
74
102
}
100
AcDbEntity
  8
0
  6
CONTINUOUS
 62
     7
100
AcDbSpline
210
0.0
220
0.0
230
1.0
 70
     8
 71
     3
 72
     8
 73
     4
 74
     0
 42
0.0000001
 43
0.0000001
 40
0.0
 40
0.0
 40
0.0
 40
0.0
 40
1.0
 40
1.0
 40
1.0
 40
1.0
 10
61.712062807018135
 20
37.232851129824695
 30
0.0
 10
69.483326491227047
 20
31.313403410526181
 30
0.0
 10
77.759871929825536
 20
25.69659446315794
 30
0.0
 10
88.960157894735829
 20
21.762290428070088
 30
0.0
  0
SPLINE
  5
56
102
{ACAD_REACTORS
330
74
102
}
100
AcDbEntity
  8
0
  6
CONTINUOUS
 62
     7
100
AcDbSpline
210
0.0
220
0.0
230
1.0
 70
     8
 71
     3
 72
     8
 73
     4
 74
     0
 42
0.0000001
 43
0.0000001
 40
0.0
 40
0.0
 40
0.0
 40
0.0
 40
1.0
 40
1.0
 40
1.0
 40
1.0
 10
88.960157894735829
 20
21.762290428070088
 30
0.0
 10
99.518425438596111
 20
10.872976217543847
 30
0.0
 10
110.95695894736845
 20
6.722772182456092
 30
0.0
 10
122.45798982456238
 20
6.7295900771929231
 30
0.0
  0
SPLINE
  5
57
102
{ACAD_REACTORS
330
74
102
}
100
AcDbEntity
  8
0
  6
CONTINUOUS
 62
     7
100
AcDbSpline
210
0.0
220
0.0
230
1.0
 70
     8
 71
     3
 72
     8
 73
     4
 74
     0
 42
0.0000001
 43
0.0000001
 40
0.0
 40
0.0
 40
0.0
 40
0.0
 40
1.0
 40
1.0
 40
1.0
 40
1.0
 10
122.45798982456238
 20
6.7295900771929231
 30
0.0
 10
122.62660014912184
 20
6.7296961333332552
 30
0.0
 10
122.79832776666723
 20
6.7276962175438131
 30
0.0
 10
122.96698354385975
 20
6.7295900771929231
 30
0.0
  0
SPLINE
  5
58
102
{ACAD_REACTORS
330
74
102
}
100
AcDbEntity
  8
0
  6
CONTINUOUS
 62
     7
100
AcDbSpline
210
0.0
220
0.0
230
1.0
 70
     8
 71
     3
 72
     8
 73
     4
 74
     0
 42
0.0000001
 43
0.0000001
 40
0.0
 40
0.0
 40
0.0
 40
0.0
 40
1.0
 40
1.0
 40
1.0
 40
1.0
 10
122.96698354385975
 20
6.7295900771929231
 30
0.0
 10
134.46801442105362
 20
6.7224312877192425
 30
0.0
 10
145.90616915789502
 20
10.87259744561409
 30
0.0
 10
156.46481547368396
 20
21.762290428070088
 30
0.0
  0
SPLINE
  5
59
102
{ACAD_REACTORS
330
74
102
}
100
AcDbEntity
  8
0
  6
CONTINUOUS
 62
     7
100
AcDbSpline
210
0.0
220
0.0
230
1.0
 70
     8
 71
     3
 72
     8
 73
     4
 74
     0
 42
0.0000001
 43
0.0000001
 40
0.0
 40
0.0
 40
0.0
 40
0.0
 40
1.0
 40
1.0
 40
1.0
 40
1.0
 10
156.46481547368396
 20
21.762290428070088
 30
0.0
 10
167.66472266666551
 20
25.696594463157922
 30
0.0
 10
175.94164687719277
 20
31.313403410526192
 30
0.0
 10
183.71291056140402
 20
37.232851129824695
 30
0.0
  0
SPLINE
  5
5A
102
{ACAD_REACTORS
330
74
102
}
100
AcDbEntity
  8
0
  6
CONTINUOUS
 62
     7
100
AcDbSpline
210
0.0
220
0.0
230
1.0
 70
     8
 71
     3
 72
     8
 73
     4
 74
     0
 42
0.0000001
 43
0.0000001
 40
0.0
 40
0.0
 40
0.0
 40
0.0
 40
1.0
 40
1.0
 40
1.0
 40
1.0
 10
183.71291056140402
 20
37.232851129824695
 30
0.0
 10
189.01609635087675
 20
38.556999919296928
 30
0.0
 10
209.12282547368497
 20
49.753914814034005
 30
0.0
 10
212.20375635087697
 20
73.66616551579078
 30
0.0
  0
SPLINE
  5
5B
102
{ACAD_REACTORS
330
74
102
}
100
AcDbEntity
  8
0
  6
CONTINUOUS
 62
     7
100
AcDbSpline
210
0.0
220
0.0
230
1.0
 70
     8
 71
     3
 72
     8
 73
     4
 74
     0
 42
0.0000001
 43
0.0000001
 40
0.0
 40
0.0
 40
0.0
 40
0.0
 40
1.0
 40
1.0
 40
1.0
 40
1.0
 10
212.20375635087697
 20
73.66616551579078
 30
0.0
 10
214.26348022806917
 20
79.600385340350115
 30
0.0
 10
216.57705705263109
 20
84.962280778948553
 30
0.0
 10
217.95654442105374
 20
92.427117971930727
 30
0.0
  0
SPLINE
  5
5C
102
{ACAD_REACTORS
330
74
102
}
100
AcDbEntity
  8
0
  6
CONTINUOUS
 62
     7
100
AcDbSpline
210
0.0
220
0.0
230
1.0
 70
     8
 71
     3
 72
     8
 73
     4
 74
     0
 42
0.0000001
 43
0.0000001
 40
0.0
 40
0.0
 40
0.0
 40
0.0
 40
1.0
 40
1.0
 40
1.0
 40
1.0
 10
217.95654442105374
 20
92.427117971930727
 30
0.0
 10
239.0745945964911
 20
116.27649253333344
 30
0.0
 10
225.56986021052529
 20
145.61806007719207
 30
0.0
 10
210.55874985964815
 20
154.74646358596462
 30
0.0
  0
LINE
  5
5D
102
{ACAD_REACTORS
330
74
102
}
100
AcDbEntity
  8
0
  6
CONTINUOUS
 62
     7
100
AcDbLine
 10
210.55875
 20
154.746464
 30
0.0
 11
208.638376
 21
158.166774
 31
0.0
  0
SPLINE
  5
5E
102
{ACAD_REACTORS
330
74
102
}
100
AcDbEntity
  8
0
  6
CONTINUOUS
 62
     7
100
AcDbSpline
210
0.0
220
0.0
230
1.0
 70
     8
 71
     3
 72
     8
 73
     4
 74
     0
 42
0.0000001
 43
0.0000001
 40
0.0
 40
0.0
 40
0.0
 40
0.0
 40
1.0
 40
1.0
 40
1.0
 40
1.0
 10
208.63837617543908
 20
158.16677411227948
 30
0.0
 10
208.71438433859592
 20
182.73089130526404
 30
0.0
 10
197.48808810526418
 20
192.7429697263166
 30
0.0
 10
184.39697266666749
 20
200.3543916561417
 30
0.0
  0
SPLINE
  5
5F
102
{ACAD_REACTORS
330
74
102
}
100
AcDbEntity
  8
0
  6
CONTINUOUS
 62
     7
100
AcDbSpline
210
0.0
220
0.0
230
1.0
 70
     8
 71
     3
 72
     8
 73
     4
 74
     0
 42
0.0000001
 43
0.0000001
 40
0.0
 40
0.0
 40
0.0
 40
0.0
 40
1.0
 40
1.0
 40
1.0
 40
1.0
 10
184.39697266666749
 20
200.3543916561417
 30
0.0
 10
188.35779073684282
 20
201.41434702456252
 30
0.0
 10
192.44814880701637
 20
202.28665877894719
 30
0.0
 10
193.57045003508821
 20
207.33818849824692
 30
0.0
  0
SPLINE
  5
60
102
{ACAD_REACTORS
330
74
102
}
100
AcDbEntity
  8
0
  6
CONTINUOUS
 62
     7
100
AcDbSpline
210
0.0
220
0.0
230
1.0
 70
     8
 71
     3
 72
     8
 73
     4
 74
     0
 42
0.0000001
 43
0.0000001
 40
0.0
 40
0.0
 40
0.0
 40
0.0
 40
1.0
 40
1.0
 40
1.0
 40
1.0
 10
193.57045003508821
 20
207.33818849824692
 30
0.0
 10
200.37622407017443
 20
209.10697765613892
 30
0.0
 10
201.80040652631581
 20
212.3054035859648
 30
0.0
 10
202.4833323157888
 20
215.69465481403401
 30
0.0
  0
SPLINE
  5
61
102
{ACAD_REACTORS
330
74
102
}
100
AcDbEntity
  8
0
  6
CONTINUOUS
 62
     7
100
AcDbSpline
210
0.0
220
0.0
230
1.0
 70
     8
 71
     3
 72
     8
 73
     4
 74
     0
 42
0.0000001
 43
0.0000001
 40
0.0
 40
0.0
 40
0.0
 40
0.0
 40
1.0
 40
1.0
 40
1.0
 40
1.0
 10
202.4833323157888
 20
215.69465481403401
 30
0.0
 10
204.26272708771873
 20
216.89964195438657
 30
0.0
 10
210.22088529824632
 20
220.28196165613954
 30
0.0
 10
209.59704792982569
 20
226.09914095438685
 30
0.0
  0
SPLINE
  5
62
102
{ACAD_REACTORS
330
74
102
}
100
AcDbEntity
  8
0
  6
CONTINUOUS
 62
     7
100
AcDbSpline
210
0.0
220
0.0
230
1.0
 70
     8
 71
     3
 72
     8
 73
     4
 74
     0
 42
0.0000001
 43
0.0000001
 40
0.0
 40
0.0
 40
0.0
 40
0.0
 40
1.0
 40
1.0
 40
1.0
 40
1.0
 10
209.59704792982569
 20
226.09914095438685
 30
0.0
 10
212.93277868421083
 20
228.43676979649021
 30
0.0
 10
214.79266249122745
 20
231.43603744561455
 30
0.0
 10
213.84649021052707
 20
235.68661604210592
 30
0.0
  0
SPLINE
  5
63
102
{ACAD_REACTORS
330
74
102
}
100
AcDbEntity
  8
0
  6
CONTINUOUS
 62
     7
100
AcDbSpline
210
0.0
220
0.0
230
1.0
 70
     8
 71
     3
 72
     8
 73
     4
 74
     0
 42
0.0000001
 43
0.0000001
 40
0.0
 40
0.0
 40
0.0
 40
0.0
 40
1.0
 40
1.0
 40
1.0
 40
1.0
 10
213.84649021052707
 20
235.68661604210592
 30
0.0
 10
217.43152864912184
 20
239.65652463859658
 30
0.0
 10
218.37508740350887
 20
242.93668955087628
 30
0.0
 10
216.85299240350892
 20
245.9608046385959
 30
0.0
  0
SPLINE
  5
64
102
{ACAD_REACTORS
330
74
102
}
100
AcDbEntity
  8
0
  6
CONTINUOUS
 62
     7
100
AcDbSpline
210
0.0
220
0.0
230
1.0
 70
     8
 71
     3
 72
     8
 73
     4
 74
     0
 42
0.0000001
 43
0.0000001
 40
0.0
 40
0.0
 40
0.0
 40
0.0
 40
1.0
 40
1.0
 40
1.0
 40
1.0
 10
216.85299240350892
 20
245.9608046385959
 30
0.0
 10
221.15584152631496
 20
251.38784884912278
 30
0.0
 10
219.24683099999899
 20
254.20136674385844
 30
0.0
 10
217.4097871403506
 20
257.04935288420955
 30
0.0
  0
SPLINE
  5
65
102
{ACAD_REACTORS
330
74
102
}
100
AcDbEntity
  8
0
  6
CONTINUOUS
 62
     7
100
AcDbSpline
210
0.0
220
0.0
230
1.0
 70
     8
 71
     3
 72
     8
 73
     4
 74
     0
 42
0.0000001
 43
0.0000001
 40
0.0
 40
0.0
 40
0.0
 40
0.0
 40
1.0
 40
1.0
 40
1.0
 40
1.0
 10
217.4097871403506
 20
257.04935288420955
 30
0.0
 10
220.63313626315789
 20
262.98395148070171
 30
0.0
 10
217.78855907017541
 20
269.34807744561465
 30
0.0
 10
208.77757485964949
 20
268.28221323508876
 30
0.0
  0
SPLINE
  5
66
102
{ACAD_REACTORS
330
74
102
}
100
AcDbEntity
  8
0
  6
CONTINUOUS
 62
     7
100
AcDbSpline
210
0.0
220
0.0
230
1.0
 70
     8
 71
     3
 72
     8
 73
     4
 74
     0
 42
0.0000001
 43
0.0000001
 40
0.0
 40
0.0
 40
0.0
 40
0.0
 40
1.0
 40
1.0
 40
1.0
 40
1.0
 10
208.77757485964949
 20
268.28221323508876
 30
0.0
 10
205.19439240350843
 20
273.62895779649148
 30
0.0
 10
197.38032749122885
 20
272.41461498947262
 30
0.0
 10
196.17204503508691
 20
272.38961604210465
 30
0.0
  0
SPLINE
  5
67
102
{ACAD_REACTORS
330
74
102
}
100
AcDbEntity
  8
0
  6
CONTINUOUS
 62
     7
100
AcDbSpline
210
0.0
220
0.0
230
1.0
 70
     8
 71
     3
 72
     8
 73
     4
 74
     0
 42
0.0000001
 43
0.0000001
 40
0.0
 40
0.0
 40
0.0
 40
0.0
 40
1.0
 40
1.0
 40
1.0
 40
1.0
 10
196.17204503508691
 20
272.38961604210465
 30
0.0
 10
194.81982924561282
 20
274.10583165614088
 30
0.0
 10
193.03581345614026
 20
275.57584551579015
 30
0.0
 10
187.5436204736836
 20
274.86345127017591
 30
0.0
  0
SPLINE
  5
68
102
{ACAD_REACTORS
330
74
102
}
100
AcDbEntity
  8
0
  6
CONTINUOUS
 62
     7
100
AcDbSpline
210
0.0
220
0.0
230
1.0
 70
     8
 71
     3
 72
     8
 73
     4
 74
     0
 42
0.0000001
 43
0.0000001
 40
0.0
 40
0.0
 40
0.0
 40
0.0
 40
1.0
 40
1.0
 40
1.0
 40
1.0
 10
187.5436204736836
 20
274.86345127017591
 30
0.0
 10
183.98695205263178
 20
278.08384597192946
 30
0.0
 10
180.00984678947481
 20
277.53432365614111
 30
0.0
 10
175.90774678947466
 20
275.95242056841988
 30
0.0
  0
SPLINE
  5
69
102
{ACAD_REACTORS
330
74
102
}
100
AcDbEntity
  8
0
  6
CONTINUOUS
 62
     7
100
AcDbSpline
210
0.0
220
0.0
230
1.0
 70
     8
 71
     3
 72
     8
 73
     4
 74
     0
 42
0.0000001
 43
0.0000001
 40
0.0
 40
0.0
 40
0.0
 40
0.0
 40
1.0
 40
1.0
 40
1.0
 40
1.0
 10
175.90774678947466
 20
275.95242056841988
 30
0.0
 10
171.03673977192895
 20
279.79619811228071
 30
0.0
 10
167.81339064912171
 20
276.71500209473612
 30
0.0
 10
164.13172749122907
 20
275.55001327017442
 30
0.0
  0
SPLINE
  5
6A
102
{ACAD_REACTORS
330
74
102
}
100
AcDbEntity
  8
0
  6
CONTINUOUS
 62
     7
100
AcDbSpline
210
0.0
220
0.0
230
1.0
 70
     8
 71
     3
 72
     8
 73
     4
 74
     0
 42
0.0000001
 43
0.0000001
 40
0.0
 40
0.0
 40
0.0
 40
0.0
 40
1.0
 40
1.0
 40
1.0
 40
1.0
 10
164.13172749122907
 20
275.55001327017442
 30
0.0
 10
158.23424854386059
 20
277.47709121754366
 30
0.0
 10
156.88582047368445
 20
274.83754327017544
 30
0.0
 10
153.98821521052614
 20
273.76266428771919
 30
0.0
  0
SPLINE
  5
6B
102
{ACAD_REACTORS
330
74
102
}
100
AcDbEntity
  8
0
  6
CONTINUOUS
 62
     7
100
AcDbSpline
210
0.0
220
0.0
230
1.0
 70
     8
 71
     3
 72
     8
 73
     4
 74
     0
 42
0.0000001
 43
0.0000001
 40
0.0
 40
0.0
 40
0.0
 40
0.0
 40
1.0
 40
1.0
 40
1.0
 40
1.0
 10
153.98821521052614
 20
273.76266428771919
 30
0.0
 10
147.55666784210493
 20
275.12173584912216
 30
0.0
 10
145.60220468421127
 20
272.16273165614012
 30
0.0
 10
142.51900117543826
 20
269.03975709473616
 30
0.0
  0
LINE
  5
6C
102
{ACAD_REACTORS
330
74
102
}
100
AcDbEntity
  8
0
  6
CONTINUOUS
 62
     7
100
AcDbLine
 10
142.519001
 20
269.039757
 30
0.0
 11
138.932486
 21
269.110777
 31
0.0
  0
SPLINE
  5
6D
102
{ACAD_REACTORS
330
74
102
}
100
AcDbEntity
  8
0
  6
CONTINUOUS
 62
     7
100
AcDbSpline
210
0.0
220
0.0
230
1.0
 70
     8
 71
     3
 72
     8
 73
     4
 74
     0
 42
0.0000001
 43
0.0000001
 40
0.0
 40
0.0
 40
0.0
 40
0.0
 40
1.0
 40
1.0
 40
1.0
 40
1.0
 10
138.93248552631573
 20
269.11077683157879
 30
0.0
 10
129.23175763157823
 20
263.39397209473583
 30
0.0
 10
124.41264236842056
 20
251.75317437543902
 30
0.0
 10
122.70438096491289
 20
245.76895665614097
 30
0.0
  0
SPLINE
  5
6E
102
{ACAD_REACTORS
330
74
102
}
100
AcDbEntity
  8
0
  6
CONTINUOUS
 62
     7
100
AcDbSpline
210
0.0
220
0.0
230
1.0
 70
     8
 71
     3
 72
     8
 73
     4
 74
     0
 42
0.0000001
 43
0.0000001
 40
0.0
 40
0.0
 40
0.0
 40
0.0
 40
1.0
 40
1.0
 40
1.0
 40
1.0
 10
122.70438096491289
 20
245.76895665614097
 30
0.0
 10
120.99532414035181
 20
251.75431069122908
 30
0.0
 10
116.18723114035033
 20
263.39510841052595
 30
0.0
 10
106.48839710526292
 20
269.11077683157879
 30
0.0
  0
LINE
  5
6F
102
{ACAD_REACTORS
330
74
102
}
100
AcDbEntity
  8
0
  6
CONTINUOUS
 62
     7
100
AcDbLine
 10
106.488397
 20
269.110777
 30
0.0
 11
102.901881
 21
269.039757
 31
0.0
  0
SPLINE
  5
70
102
{ACAD_REACTORS
330
74
102
}
100
AcDbEntity
  8
0
  6
CONTINUOUS
 62
     7
100
AcDbSpline
210
0.0
220
0.0
230
1.0
 70
     8
 71
     3
 72
     8
 73
     4
 74
     0
 42
0.0000001
 43
0.0000001
 40
0.0
 40
0.0
 40
0.0
 40
0.0
 40
1.0
 40
1.0
 40
1.0
 40
1.0
 10
102.90188145614042
 20
269.03975709473616
 30
0.0
 10
99.814890228069586
 20
272.16273165614018
 30
0.0
 10
97.860427070175845
 20
275.12169797193104
 30
0.0
 10
91.428879701754752
 20
273.76266428771919
 30
0.0
  0
SPLINE
  5
71
102
{ACAD_REACTORS
330
74
102
}
100
AcDbEntity
  8
0
  6
CONTINUOUS
 62
     7
100
AcDbSpline
210
0.0
220
0.0
230
1.0
 70
     8
 71
     3
 72
     8
 73
     4
 74
     0
 42
0.0000001
 43
0.0000001
 40
0.0
 40
0.0
 40
0.0
 40
0.0
 40
1.0
 40
1.0
 40
1.0
 40
1.0
 10
91.428879701754752
 20
273.76266428771919
 30
0.0
 10
88.531274438596469
 20
274.83754327017527
 30
0.0
 10
87.186634087720293
 20
277.47709121754372
 30
0.0
 10
81.285367421051802
 20
275.55001327017442
 30
0.0
  0
SPLINE
  5
72
102
{ACAD_REACTORS
330
74
102
}
100
AcDbEntity
  8
0
  6
CONTINUOUS
 62
     7
100
AcDbSpline
210
0.0
220
0.0
230
1.0
 70
     8
 71
     3
 72
     8
 73
     4
 74
     0
 42
0.0000001
 43
0.0000001
 40
0.0
 40
0.0
 40
0.0
 40
0.0
 40
1.0
 40
1.0
 40
1.0
 40
1.0
 10
81.285367421051802
 20
275.55001327017442
 30
0.0
 10
78.868916140351558
 20
276.31456441052552
 30
0.0
 10
76.6465475964917
 20
277.90385355087864
 30
0.0
 10
74.029612333332906
 20
277.82264484912184
 30
0.0
  0
LINE
  5
73
102
{ACAD_REACTORS
330
74
102
}
100
AcDbEntity
  8
0
  6
CONTINUOUS
 62
     7
100
AcDbLine
 10
74.029612
 20
277.822645
 30
0.0
 11
74.034347
 21
277.821584
 31
0.0
  0
HATCH
  5
74
100
AcDbEntity
  8
0
 62
     7
100
AcDbHatch
 10
0.0
 20
0.0
 30
0.0
210
0.0
220
0.0
230
1.0
  2
SOLID
 70
     1
 71
     1
 91
        1
 92
        1
 93
       47
 72
     4
 94
        3
 73
     0
 74
     0
 95
        8
 96
        4
 40
0.0
 40
0.0
 40
0.0
 40
0.0
 40
1.0
 40
1.0
 40
1.0
 40
1.0
 10
74.034346982456881
 20
277.82158428771925
 10
72.663457736841124
 20
277.77904062456201
 10
71.187042631579672
 20
277.27263012982462
 10
69.512567684211092
 20
275.95139788421125
 72
     4
 94
        3
 73
     0
 74
     0
 95
        8
 96
        4
 40
0.0
 40
0.0
 40
0.0
 40
0.0
 40
1.0
 40
1.0
 40
1.0
 40
1.0
 10
69.512567684211092
 20
275.95139788421125
 10
65.410467684210886
 20
277.5332630947359
 10
61.433362421051605
 20
278.08278541052692
 10
57.876693999999794
 20
274.86239070877076
 72
     4
 94
        3
 73
     0
 74
     0
 95
        8
 96
        4
 40
0.0
 40
0.0
 40
0.0
 40
0.0
 40
1.0
 40
1.0
 40
1.0
 40
1.0
 10
57.876693999999794
 20
274.86239070877076
 10
52.384501017543073
 20
275.57478495438465
 10
50.599727684211004
 20
274.10477109473601
 10
49.247511894736952
 20
272.38855548070228
 72
     4
 94
        3
 73
     0
 74
     0
 95
        8
 96
        4
 40
0.0
 40
0.0
 40
0.0
 40
0.0
 40
1.0
 40
1.0
 40
1.0
 40
1.0
 10
49.247511894736952
 20
272.38855548070228
 10
48.041880842104561
 20
272.41355442807009
 10
40.225543298246237
 20
273.62789723508649
 10
36.641224526314765
 20
268.28115267368361
 72
     4
 94
        3
 73
     0
 74
     0
 95
        8
 96
        4
 40
0.0
 40
0.0
 40
0.0
 40
0.0
 40
1.0
 40
1.0
 40
1.0
 40
1.0
 10
36.641224526314765
 20
268.28115267368361
 10
27.633649263157938
 20
269.34701688420955
 10
24.786799438596464
 20
262.98289091929922
 10
28.012421192982405
 20
257.04829232280713
 72
     4
 94
        3
 73
     0
 74
     0
 95
        8
 96
        4
 40
0.0
 40
0.0
 40
0.0
 40
0.0
 40
1.0
 40
1.0
 40
1.0
 40
1.0
 10
28.012421192982405
 20
257.04829232280713
 10
26.17276380701756
 20
254.20030618245562
 10
24.266556192982453
 20
251.38678828772072
 10
28.568761403508837
 20
245.95747144561329
 72
     4
 94
        3
 73
     0
 74
     0
 95
        8
 96
        4
 40
0.0
 40
0.0
 40
0.0
 40
0.0
 40
1.0
 40
1.0
 40
1.0
 40
1.0
 10
28.568761403508837
 20
245.95747144561329
 10
27.0468557894736
 20
242.93354574385995
 10
27.990225157894834
 20
239.65319144561411
 10
31.575263596490181
 20
235.68328284912332
 72
     4
 94
        3
 73
     0
 74
     0
 95
        8
 96
        4
 40
0.0
 40
0.0
 40
0.0
 40
0.0
 40
1.0
 40
1.0
 40
1.0
 40
1.0
 10
31.575263596490181
 20
235.68328284912332
 10
30.629129192983559
 20
231.43232548070191
 10
32.488899368421116
 20
228.4332093403502
 10
35.824705877193914
 20
226.0958077614043
 72
     4
 94
        3
 73
     0
 74
     0
 95
        8
 96
        4
 40
0.0
 40
0.0
 40
0.0
 40
0.0
 40
1.0
 40
1.0
 40
1.0
 40
1.0
 10
35.824705877193914
 20
226.0958077614043
 10
35.200830631579471
 20
220.27862846315671
 10
41.15932973684184
 20
216.89657390175546
 10
42.938421491228468
 20
215.6913216210514
 72
     4
 94
        3
 73
     0
 74
     0
 95
        8
 96
        4
 40
0.0
 40
0.0
 40
0.0
 40
0.0
 40
1.0
 40
1.0
 40
1.0
 40
1.0
 10
42.938421491228468
 20
215.6913216210514
 10
43.621612421053378
 20
212.30180525263066
 10
45.045491859648912
 20
209.10334144561415
 10
51.851303771929047
 20
207.33485530526431
 72
     4
 94
        3
 73
     0
 74
     0
 95
        8
 96
        4
 40
0.0
 40
0.0
 40
0.0
 40
0.0
 40
1.0
 40
1.0
 40
1.0
 40
1.0
 10
51.851303771929047
 20
207.33485530526431
 10
52.973680754386073
 20
202.28355284912195
 10
57.063963070174388
 20
201.41124109473756
 10
61.024781140349745
 20
200.35105846315909
 72
     4
 94
        3
 73
     0
 74
     0
 95
        8
 96
        4
 40
0.0
 40
0.0
 40
0.0
 40
0.0
 40
1.0
 40
1.0
 40
1.0
 40
1.0
 10
61.024781140349745
 20
200.35105846315909
 10
47.93366570175538
 20
192.74153039298119
 10
36.707244473684575
 20
182.729451971929
 10
36.783377631578176
 20
158.16344091929693
 72
     1
 10
36.783377631578176
 20
158.16344091929693
 11
34.865844736842995
 21
154.7426758666671
 72
     4
 94
        3
 73
     0
 74
     0
 95
        8
 96
        4
 40
0.0
 40
0.0
 40
0.0
 40
0.0
 40
1.0
 40
1.0
 40
1.0
 40
1.0
 10
34.865844736842995
 20
154.7426758666671
 10
19.855113157894699
 20
145.61427235789452
 10
6.3499999999999979
 20
116.27459867368339
 10
27.468428947368373
 20
92.427117971930727
 72
     4
 94
        3
 73
     0
 74
     0
 95
        8
 96
        4
 40
0.0
 40
0.0
 40
0.0
 40
0.0
 40
1.0
 40
1.0
 40
1.0
 40
1.0
 10
27.468428947368373
 20
92.427117971930727
 10
28.847878438596371
 20
84.962280778948482
 10
31.161303754386172
 20
79.600385340350158
 10
33.221217017542834
 20
73.66616551579078
 72
     4
 94
        3
 73
     0
 74
     0
 95
        8
 96
        4
 40
0.0
 40
0.0
 40
0.0
 40
0.0
 40
1.0
 40
1.0
 40
1.0
 40
1.0
 10
33.221217017542834
 20
73.66616551579078
 10
36.302072140351875
 20
49.753914814033969
 10
56.40887701754297
 20
38.557037796490775
 10
61.712062807018135
 20
37.232851129824695
 72
     4
 94
        3
 73
     0
 74
     0
 95
        8
 96
        4
 40
0.0
 40
0.0
 40
0.0
 40
0.0
 40
1.0
 40
1.0
 40
1.0
 40
1.0
 10
61.712062807018135
 20
37.232851129824695
 10
69.483326491227047
 20
31.313403410526181
 10
77.759871929825536
 20
25.69659446315794
 10
88.960157894735829
 20
21.762290428070088
 72
     4
 94
        3
 73
     0
 74
     0
 95
        8
 96
        4
 40
0.0
 40
0.0
 40
0.0
 40
0.0
 40
1.0
 40
1.0
 40
1.0
 40
1.0
 10
88.960157894735829
 20
21.762290428070088
 10
99.518425438596111
 20
10.872976217543847
 10
110.95695894736845
 20
6.722772182456092
 10
122.45798982456238
 20
6.7295900771929231
 72
     4
 94
        3
 73
     0
 74
     0
 95
        8
 96
        4
 40
0.0
 40
0.0
 40
0.0
 40
0.0
 40
1.0
 40
1.0
 40
1.0
 40
1.0
 10
122.45798982456238
 20
6.7295900771929231
 10
122.62660014912184
 20
6.7296961333332552
 10
122.79832776666723
 20
6.7276962175438131
 10
122.96698354385975
 20
6.7295900771929231
 72
     4
 94
        3
 73
     0
 74
     0
 95
        8
 96
        4
 40
0.0
 40
0.0
 40
0.0
 40
0.0
 40
1.0
 40
1.0
 40
1.0
 40
1.0
 10
122.96698354385975
 20
6.7295900771929231
 10
134.46801442105362
 20
6.7224312877192425
 10
145.90616915789502
 20
10.87259744561409
 10
156.46481547368396
 20
21.762290428070088
 72
     4
 94
        3
 73
     0
 74
     0
 95
        8
 96
        4
 40
0.0
 40
0.0
 40
0.0
 40
0.0
 40
1.0
 40
1.0
 40
1.0
 40
1.0
 10
156.46481547368396
 20
21.762290428070088
 10
167.66472266666551
 20
25.696594463157922
 10
175.94164687719277
 20
31.313403410526192
 10
183.71291056140402
 20
37.232851129824695
 72
     4
 94
        3
 73
     0
 74
     0
 95
        8
 96
        4
 40
0.0
 40
0.0
 40
0.0
 40
0.0
 40
1.0
 40
1.0
 40
1.0
 40
1.0
 10
183.71291056140402
 20
37.232851129824695
 10
189.01609635087675
 20
38.556999919296928
 10
209.12282547368497
 20
49.753914814034005
 10
212.20375635087697
 20
73.66616551579078
 72
     4
 94
        3
 73
     0
 74
     0
 95
        8
 96
        4
 40
0.0
 40
0.0
 40
0.0
 40
0.0
 40
1.0
 40
1.0
 40
1.0
 40
1.0
 10
212.20375635087697
 20
73.66616551579078
 10
214.26348022806917
 20
79.600385340350115
 10
216.57705705263109
 20
84.962280778948553
 10
217.95654442105374
 20
92.427117971930727
 72
     4
 94
        3
 73
     0
 74
     0
 95
        8
 96
        4
 40
0.0
 40
0.0
 40
0.0
 40
0.0
 40
1.0
 40
1.0
 40
1.0
 40
1.0
 10
217.95654442105374
 20
92.427117971930727
 10
239.0745945964911
 20
116.27649253333344
 10
225.56986021052529
 20
145.61806007719207
 10
210.55874985964815
 20
154.74646358596462
 72
     1
 10
210.55874985964815
 20
154.74646358596462
 11
208.63837617543908
 21
158.16677411227948
 72
     4
 94
        3
 73
     0
 74
     0
 95
        8
 96
        4
 40
0.0
 40
0.0
 40
0.0
 40
0.0
 40
1.0
 40
1.0
 40
1.0
 40
1.0
 10
208.63837617543908
 20
158.16677411227948
 10
208.71438433859592
 20
182.73089130526404
 10
197.48808810526418
 20
192.7429697263166
 10
184.39697266666749
 20
200.3543916561417
 72
     4
 94
        3
 73
     0
 74
     0
 95
        8
 96
        4
 40
0.0
 40
0.0
 40
0.0
 40
0.0
 40
1.0
 40
1.0
 40
1.0
 40
1.0
 10
184.39697266666749
 20
200.3543916561417
 10
188.35779073684282
 20
201.41434702456252
 10
192.44814880701637
 20
202.28665877894719
 10
193.57045003508821
 20
207.33818849824692
 72
     4
 94
        3
 73
     0
 74
     0
 95
        8
 96
        4
 40
0.0
 40
0.0
 40
0.0
 40
0.0
 40
1.0
 40
1.0
 40
1.0
 40
1.0
 10
193.57045003508821
 20
207.33818849824692
 10
200.37622407017443
 20
209.10697765613892
 10
201.80040652631581
 20
212.3054035859648
 10
202.4833323157888
 20
215.69465481403401
 72
     4
 94
        3
 73
     0
 74
     0
 95
        8
 96
        4
 40
0.0
 40
0.0
 40
0.0
 40
0.0
 40
1.0
 40
1.0
 40
1.0
 40
1.0
 10
202.4833323157888
 20
215.69465481403401
 10
204.26272708771873
 20
216.89964195438657
 10
210.22088529824632
 20
220.28196165613954
 10
209.59704792982569
 20
226.09914095438685
 72
     4
 94
        3
 73
     0
 74
     0
 95
        8
 96
        4
 40
0.0
 40
0.0
 40
0.0
 40
0.0
 40
1.0
 40
1.0
 40
1.0
 40
1.0
 10
209.59704792982569
 20
226.09914095438685
 10
212.93277868421083
 20
228.43676979649021
 10
214.79266249122745
 20
231.43603744561455
 10
213.84649021052707
 20
235.68661604210592
 72
     4
 94
        3
 73
     0
 74
     0
 95
        8
 96
        4
 40
0.0
 40
0.0
 40
0.0
 40
0.0
 40
1.0
 40
1.0
 40
1.0
 40
1.0
 10
213.84649021052707
 20
235.68661604210592
 10
217.43152864912184
 20
239.65652463859658
 10
218.37508740350887
 20
242.93668955087628
 10
216.85299240350892
 20
245.9608046385959
 72
     4
 94
        3
 73
     0
 74
     0
 95
        8
 96
        4
 40
0.0
 40
0.0
 40
0.0
 40
0.0
 40
1.0
 40
1.0
 40
1.0
 40
1.0
 10
216.85299240350892
 20
245.9608046385959
 10
221.15584152631496
 20
251.38784884912278
 10
219.24683099999899
 20
254.20136674385844
 10
217.4097871403506
 20
257.04935288420955
 72
     4
 94
        3
 73
     0
 74
     0
 95
        8
 96
        4
 40
0.0
 40
0.0
 40
0.0
 40
0.0
 40
1.0
 40
1.0
 40
1.0
 40
1.0
 10
217.4097871403506
 20
257.04935288420955
 10
220.63313626315789
 20
262.98395148070171
 10
217.78855907017541
 20
269.34807744561465
 10
208.77757485964949
 20
268.28221323508876
 72
     4
 94
        3
 73
     0
 74
     0
 95
        8
 96
        4
 40
0.0
 40
0.0
 40
0.0
 40
0.0
 40
1.0
 40
1.0
 40
1.0
 40
1.0
 10
208.77757485964949
 20
268.28221323508876
 10
205.19439240350843
 20
273.62895779649148
 10
197.38032749122885
 20
272.41461498947262
 10
196.17204503508691
 20
272.38961604210465
 72
     4
 94
        3
 73
     0
 74
     0
 95
        8
 96
        4
 40
0.0
 40
0.0
 40
0.0
 40
0.0
 40
1.0
 40
1.0
 40
1.0
 40
1.0
 10
196.17204503508691
 20
272.38961604210465
 10
194.81982924561282
 20
274.10583165614088
 10
193.03581345614026
 20
275.57584551579015
 10
187.5436204736836
 20
274.86345127017591
 72
     4
 94
        3
 73
     0
 74
     0
 95
        8
 96
        4
 40
0.0
 40
0.0
 40
0.0
 40
0.0
 40
1.0
 40
1.0
 40
1.0
 40
1.0
 10
187.5436204736836
 20
274.86345127017591
 10
183.98695205263178
 20
278.08384597192946
 10
180.00984678947481
 20
277.53432365614111
 10
175.90774678947466
 20
275.95242056841988
 72
     4
 94
        3
 73
     0
 74
     0
 95
        8
 96
        4
 40
0.0
 40
0.0
 40
0.0
 40
0.0
 40
1.0
 40
1.0
 40
1.0
 40
1.0
 10
175.90774678947466
 20
275.95242056841988
 10
171.03673977192895
 20
279.79619811228071
 10
167.81339064912171
 20
276.71500209473612
 10
164.13172749122907
 20
275.55001327017442
 72
     4
 94
        3
 73
     0
 74
     0
 95
        8
 96
        4
 40
0.0
 40
0.0
 40
0.0
 40
0.0
 40
1.0
 40
1.0
 40
1.0
 40
1.0
 10
164.13172749122907
 20
275.55001327017442
 10
158.23424854386059
 20
277.47709121754366
 10
156.88582047368445
 20
274.83754327017544
 10
153.98821521052614
 20
273.76266428771919
 72
     4
 94
        3
 73
     0
 74
     0
 95
        8
 96
        4
 40
0.0
 40
0.0
 40
0.0
 40
0.0
 40
1.0
 40
1.0
 40
1.0
 40
1.0
 10
153.98821521052614
 20
273.76266428771919
 10
147.55666784210493
 20
275.12173584912216
 10
145.60220468421127
 20
272.16273165614012
 10
142.51900117543826
 20
269.03975709473616
 72
     1
 10
142.51900117543826
 20
269.03975709473616
 11
138.93248552631573
 21
269.11077683157879
 72
     4
 94
        3
 73
     0
 74
     0
 95
        8
 96
        4
 40
0.0
 40
0.0
 40
0.0
 40
0.0
 40
1.0
 40
1.0
 40
1.0
 40
1.0
 10
138.93248552631573
 20
269.11077683157879
 10
129.23175763157823
 20
263.39397209473583
 10
124.41264236842056
 20
251.75317437543902
 10
122.70438096491289
 20
245.76895665614097
 72
     4
 94
        3
 73
     0
 74
     0
 95
        8
 96
        4
 40
0.0
 40
0.0
 40
0.0
 40
0.0
 40
1.0
 40
1.0
 40
1.0
 40
1.0
 10
122.70438096491289
 20
245.76895665614097
 10
120.99532414035181
 20
251.75431069122908
 10
116.18723114035033
 20
263.39510841052595
 10
106.48839710526292
 20
269.11077683157879
 72
     1
 10
106.48839710526292
 20
269.11077683157879
 11
102.90188145614042
 21
269.03975709473616
 72
     4
 94
        3
 73
     0
 74
     0
 95
        8
 96
        4
 40
0.0
 40
0.0
 40
0.0
 40
0.0
 40
1.0
 40
1.0
 40
1.0
 40
1.0
 10
102.90188145614042
 20
269.03975709473616
 10
99.814890228069586
 20
272.16273165614018
 10
97.860427070175845
 20
275.12169797193104
 10
91.428879701754752
 20
273.76266428771919
 72
     4
 94
        3
 73
     0
 74
     0
 95
        8
 96
        4
 40
0.0
 40
0.0
 40
0.0
 40
0.0
 40
1.0
 40
1.0
 40
1.0
 40
1.0
 10
91.428879701754752
 20
273.76266428771919
 10
88.531274438596469
 20
274.83754327017527
 10
87.186634087720293
 20
277.47709121754372
 10
81.285367421051802
 20
275.55001327017442
 72
     4
 94
        3
 73
     0
 74
     0
 95
        8
 96
        4
 40
0.0
 40
0.0
 40
0.0
 40
0.0
 40
1.0
 40
1.0
 40
1.0
 40
1.0
 10
81.285367421051802
 20
275.55001327017442
 10
78.868916140351558
 20
276.31456441052552
 10
76.6465475964917
 20
277.90385355087864
 10
74.029612333332906
 20
277.82264484912184
 72
     1
 10
74.029612333332906
 20
277.82264484912184
 11
74.034346982456881
 21
277.82158428771925
 97
       47
330
45
330
46
330
47
330
48
330
49
330
4A
330
4B
330
4C
330
4D
330
4E
330
4F
330
50
330
51
330
52
330
53
330
54
330
55
330
56
330
57
330
58
330
59
330
5A
330
5B
330
5C
330
5D
330
5E
330
5F
330
60
330
61
330
62
330
63
330
64
330
65
330
66
330
67
330
68
330
69
330
6A
330
6B
330
6C
330
6D
330
6E
330
6F
330
70
330
71
330
72
330
73
 75
     0
 76
     1
 98
        0
  0
SPLINE
  5
75
102
{ACAD_REACTORS
330
96
102
}
100
AcDbEntity
  8
0
  6
CONTINUOUS
 62
     7
100
AcDbSpline
210
0.0
220
0.0
230
1.0
 70
     8
 71
     3
 72
     8
 73
     4
 74
     0
 42
0.0000001
 43
0.0000001
 40
0.0
 40
0.0
 40
0.0
 40
0.0
 40
1.0
 40
1.0
 40
1.0
 40
1.0
 10
54.720766280701305
 20
252.67120390175552
 30
0.0
 10
80.45756136842094
 20
239.40244442807131
 30
0.0
 10
95.419810140351075
 20
228.6688054807029
 30
0.0
 10
103.61643470175413
 20
219.52714495438696
 30
0.0
  0
SPLINE
  5
76
102
{ACAD_REACTORS
330
96
102
}
100
AcDbEntity
  8
0
  6
CONTINUOUS
 62
     7
100
AcDbSpline
210
0.0
220
0.0
230
1.0
 70
     8
 71
     3
 72
     8
 73
     4
 74
     0
 42
0.0000001
 43
0.0000001
 40
0.0
 40
0.0
 40
0.0
 40
0.0
 40
1.0
 40
1.0
 40
1.0
 40
1.0
 10
103.61643470175413
 20
219.52714495438696
 30
0.0
 10
99.418884175438151
 20
202.70285337543973
 30
0.0
 10
77.52056382456135
 20
201.93508267368534
 30
0.0
 10
69.513325228070244
 20
202.40703249824676
 30
0.0
  0
SPLINE
  5
77
102
{ACAD_REACTORS
330
96
102
}
100
AcDbEntity
  8
0
  6
CONTINUOUS
 62
     7
100
AcDbSpline
210
0.0
220
0.0
230
1.0
 70
     8
 71
     3
 72
     8
 73
     4
 74
     0
 42
0.0000001
 43
0.0000001
 40
0.0
 40
0.0
 40
0.0
 40
0.0
 40
1.0
 40
1.0
 40
1.0
 40
1.0
 10
69.513325228070244
 20
202.40703249824676
 30
0.0
 10
71.152801649122736
 20
203.1701443052643
 30
0.0
 10
72.520736473684224
 20
204.08415884912392
 30
0.0
 10
73.005791807016976
 20
205.48860728772041
 30
0.0
  0
SPLINE
  5
78
102
{ACAD_REACTORS
330
96
102
}
100
AcDbEntity
  8
0
  6
CONTINUOUS
 62
     7
100
AcDbSpline
210
0.0
220
0.0
230
1.0
 70
     8
 71
     3
 72
     8
 73
     4
 74
     0
 42
0.0000001
 43
0.0000001
 40
0.0
 40
0.0
 40
0.0
 40
0.0
 40
1.0
 40
1.0
 40
1.0
 40
1.0
 10
73.005791807016976
 20
205.48860728772041
 30
0.0
 10
70.996596105263109
 20
206.9165017087731
 30
0.0
 10
63.872464263157823
 20
205.63905171052744
 30
0.0
 10
58.898810052631084
 20
208.43325602456255
 30
0.0
  0
SPLINE
  5
79
102
{ACAD_REACTORS
330
96
102
}
100
AcDbEntity
  8
0
  6
CONTINUOUS
 62
     7
100
AcDbSpline
210
0.0
220
0.0
230
1.0
 70
     8
 71
     3
 72
     8
 73
     4
 74
     0
 42
0.0000001
 43
0.0000001
 40
0.0
 40
0.0
 40
0.0
 40
0.0
 40
1.0
 40
1.0
 40
1.0
 40
1.0
 10
58.898810052631084
 20
208.43325602456255
 30
0.0
 10
60.809373543859635
 20
208.82907269122927
 30
0.0
 10
61.703048035087036
 20
209.21466251579076
 30
0.0
 10
62.596722526315382
 20
210.62460314736953
 30
0.0
  0
SPLINE
  5
7A
102
{ACAD_REACTORS
330
96
102
}
100
AcDbEntity
  8
0
  6
CONTINUOUS
 62
     7
100
AcDbSpline
210
0.0
220
0.0
230
1.0
 70
     8
 71
     3
 72
     8
 73
     4
 74
     0
 42
0.0000001
 43
0.0000001
 40
0.0
 40
0.0
 40
0.0
 40
0.0
 40
1.0
 40
1.0
 40
1.0
 40
1.0
 10
62.596722526315382
 20
210.62460314736953
 30
0.0
 10
57.89767796491185
 20
212.12329004210642
 30
0.0
 10
52.83614866666607
 20
213.41478869122898
 30
0.0
 10
49.859380070175561
 20
215.89748718245707
 30
0.0
  0
SPLINE
  5
7B
102
{ACAD_REACTORS
330
96
102
}
100
AcDbEntity
  8
0
  6
CONTINUOUS
 62
     7
100
AcDbSpline
210
0.0
220
0.0
230
1.0
 70
     8
 71
     3
 72
     8
 73
     4
 74
     0
 42
0.0000001
 43
0.0000001
 40
0.0
 40
0.0
 40
0.0
 40
0.0
 40
1.0
 40
1.0
 40
1.0
 40
1.0
 10
49.859380070175561
 20
215.89748718245707
 30
0.0
 10
51.465865456140364
 20
215.87763953333464
 30
0.0
 10
52.965764421052747
 20
215.53810837543949
 30
0.0
 10
55.063706385965077
 20
216.99316074386078
 30
0.0
  0
SPLINE
  5
7C
102
{ACAD_REACTORS
330
96
102
}
100
AcDbEntity
  8
0
  6
CONTINUOUS
 62
     7
100
AcDbSpline
210
0.0
220
0.0
230
1.0
 70
     8
 71
     3
 72
     8
 73
     4
 74
     0
 42
0.0000001
 43
0.0000001
 40
0.0
 40
0.0
 40
0.0
 40
0.0
 40
1.0
 40
1.0
 40
1.0
 40
1.0
 10
55.063706385965077
 20
216.99316074386078
 30
0.0
 10
50.854792701753809
 20
219.26132281403645
 30
0.0
 10
46.363693929824286
 20
221.05889863859758
 30
0.0
 10
42.87444691228017
 20
224.52579811228162
 30
0.0
  0
SPLINE
  5
7D
102
{ACAD_REACTORS
330
96
102
}
100
AcDbEntity
  8
0
  6
CONTINUOUS
 62
     7
100
AcDbSpline
210
0.0
220
0.0
230
1.0
 70
     8
 71
     3
 72
     8
 73
     4
 74
     0
 42
0.0000001
 43
0.0000001
 40
0.0
 40
0.0
 40
0.0
 40
0.0
 40
1.0
 40
1.0
 40
1.0
 40
1.0
 10
42.87444691228017
 20
224.52579811228162
 30
0.0
 10
45.050567403508438
 20
224.57906480877281
 30
0.0
 10
47.396604982455827
 20
224.54731235789572
 30
0.0
 10
48.078773228069686
 20
225.34754381403616
 30
0.0
  0
SPLINE
  5
7E
102
{ACAD_REACTORS
330
96
102
}
100
AcDbEntity
  8
0
  6
CONTINUOUS
 62
     7
100
AcDbSpline
210
0.0
220
0.0
230
1.0
 70
     8
 71
     3
 72
     8
 73
     4
 74
     0
 42
0.0000001
 43
0.0000001
 40
0.0
 40
0.0
 40
0.0
 40
0.0
 40
1.0
 40
1.0
 40
1.0
 40
1.0
 10
48.078773228069686
 20
225.34754381403616
 30
0.0
 10
44.22666270175398
 20
227.73407211228209
 30
0.0
 10
40.976420771929504
 20
230.38824065614139
 30
0.0
 10
38.286003754385654
 20
233.291148726317
 30
0.0
  0
SPLINE
  5
7F
102
{ACAD_REACTORS
330
96
102
}
100
AcDbEntity
  8
0
  6
CONTINUOUS
 62
     7
100
AcDbSpline
210
0.0
220
0.0
230
1.0
 70
     8
 71
     3
 72
     8
 73
     4
 74
     0
 42
0.0000001
 43
0.0000001
 40
0.0
 40
0.0
 40
0.0
 40
0.0
 40
1.0
 40
1.0
 40
1.0
 40
1.0
 10
38.286003754385654
 20
233.291148726317
 30
0.0
 10
41.331330070175099
 20
232.92354299298381
 30
0.0
 10
42.617260771929217
 20
233.24009784561542
 30
0.0
 10
43.353593403508228
 20
233.77052248070291
 30
0.0
  0
SPLINE
  5
80
102
{ACAD_REACTORS
330
96
102
}
100
AcDbEntity
  8
0
  6
CONTINUOUS
 62
     7
100
AcDbSpline
210
0.0
220
0.0
230
1.0
 70
     8
 71
     3
 72
     8
 73
     4
 74
     0
 42
0.0000001
 43
0.0000001
 40
0.0
 40
0.0
 40
0.0
 40
0.0
 40
1.0
 40
1.0
 40
1.0
 40
1.0
 10
43.353593403508228
 20
233.77052248070291
 30
0.0
 10
40.441670561403249
 20
236.7530484105273
 30
0.0
 10
36.756143929824297
 20
239.27142721754561
 30
0.0
 10
34.999020947368123
 20
242.94665125263279
 30
0.0
  0
SPLINE
  5
81
102
{ACAD_REACTORS
330
96
102
}
100
AcDbEntity
  8
0
  6
CONTINUOUS
 62
     7
100
AcDbSpline
210
0.0
220
0.0
230
1.0
 70
     8
 71
     3
 72
     8
 73
     4
 74
     0
 42
0.0000001
 43
0.0000001
 40
0.0
 40
0.0
 40
0.0
 40
0.0
 40
1.0
 40
1.0
 40
1.0
 40
1.0
 10
34.999020947368123
 20
242.94665125263279
 30
0.0
 10
37.260137859648786
 20
242.16732800701911
 30
0.0
 10
39.32876287719268
 20
241.86900723508936
 30
0.0
 10
40.819987964911959
 20
243.01513321754527
 30
0.0
  0
SPLINE
  5
82
102
{ACAD_REACTORS
330
96
102
}
100
AcDbEntity
  8
0
  6
CONTINUOUS
 62
     7
100
AcDbSpline
210
0.0
220
0.0
230
1.0
 70
     8
 71
     3
 72
     8
 73
     4
 74
     0
 42
0.0000001
 43
0.0000001
 40
0.0
 40
0.0
 40
0.0
 40
0.0
 40
1.0
 40
1.0
 40
1.0
 40
1.0
 10
40.819987964911959
 20
243.01513321754527
 30
0.0
 10
39.830484175438286
 20
245.24742558596597
 30
0.0
 10
35.591041473683951
 20
246.56407469122973
 30
0.0
 10
33.150235157894436
 20
251.78067321754551
 30
0.0
  0
SPLINE
  5
83
102
{ACAD_REACTORS
330
96
102
}
100
AcDbEntity
  8
0
  6
CONTINUOUS
 62
     7
100
AcDbSpline
210
0.0
220
0.0
230
1.0
 70
     8
 71
     3
 72
     8
 73
     4
 74
     0
 42
0.0000001
 43
0.0000001
 40
0.0
 40
0.0
 40
0.0
 40
0.0
 40
1.0
 40
1.0
 40
1.0
 40
1.0
 10
33.150235157894436
 20
251.78067321754551
 30
0.0
 10
35.530589473683904
 20
251.54985717894849
 30
0.0
 10
38.055331649122508
 20
251.26133902456269
 30
0.0
 10
38.560234631578673
 20
251.78067321754551
 30
0.0
  0
SPLINE
  5
84
102
{ACAD_REACTORS
330
96
102
}
100
AcDbEntity
  8
0
  6
CONTINUOUS
 62
     7
100
AcDbSpline
210
0.0
220
0.0
230
1.0
 70
     8
 71
     3
 72
     8
 73
     4
 74
     0
 42
0.0000001
 43
0.0000001
 40
0.0
 40
0.0
 40
0.0
 40
0.0
 40
1.0
 40
1.0
 40
1.0
 40
1.0
 10
38.560234631578673
 20
251.78067321754551
 30
0.0
 10
37.455356912280408
 20
256.28199883158067
 30
0.0
 10
35.559603403508447
 20
258.81257409473812
 30
0.0
 10
33.700211999999702
 20
261.43443339298364
 30
0.0
  0
SPLINE
  5
85
102
{ACAD_REACTORS
330
96
102
}
100
AcDbEntity
  8
0
  6
CONTINUOUS
 62
     7
100
AcDbSpline
210
0.0
220
0.0
230
1.0
 70
     8
 71
     3
 72
     8
 73
     4
 74
     0
 42
0.0000001
 43
0.0000001
 40
0.0
 40
0.0
 40
0.0
 40
0.0
 40
1.0
 40
1.0
 40
1.0
 40
1.0
 10
33.700211999999702
 20
261.43443339298364
 30
0.0
 10
38.794694456140071
 20
261.51018777894888
 30
0.0
 10
46.513308842105381
 20
261.41473725263307
 30
0.0
 10
46.163702350876484
 20
261.84540093684365
 30
0.0
  0
LINE
  5
86
102
{ACAD_REACTORS
330
96
102
}
100
AcDbEntity
  8
0
  6
CONTINUOUS
 62
     7
100
AcDbLine
 10
46.163702
 20
261.845401
 30
0.0
 11
43.013646
 21
265.06394
 31
0.0
  0
SPLINE
  5
87
102
{ACAD_REACTORS
330
96
102
}
100
AcDbEntity
  8
0
  6
CONTINUOUS
 62
     7
100
AcDbSpline
210
0.0
220
0.0
230
1.0
 70
     8
 71
     3
 72
     8
 73
     4
 74
     0
 42
0.0000001
 43
0.0000001
 40
0.0
 40
0.0
 40
0.0
 40
0.0
 40
1.0
 40
1.0
 40
1.0
 40
1.0
 10
43.01364559649101
 20
265.06393965614166
 30
0.0
 10
47.989951210526463
 20
266.40373172631695
 30
0.0
 10
53.081782263157969
 20
264.8487365964927
 30
0.0
 10
56.778217526315629
 20
263.6943382350895
 30
0.0
  0
SPLINE
  5
88
102
{ACAD_REACTORS
330
96
102
}
100
AcDbEntity
  8
0
  6
CONTINUOUS
 62
     7
100
AcDbSpline
210
0.0
220
0.0
230
1.0
 70
     8
 71
     3
 72
     8
 73
     4
 74
     0
 42
0.0000001
 43
0.0000001
 40
0.0
 40
0.0
 40
0.0
 40
0.0
 40
1.0
 40
1.0
 40
1.0
 40
1.0
 10
56.778217526315629
 20
263.6943382350895
 30
0.0
 10
58.437958245613785
 20
265.00401793684341
 30
0.0
 10
56.748824824560778
 20
266.66012244561574
 30
0.0
 10
54.723834333332611
 20
268.35096034035212
 30
0.0
  0
SPLINE
  5
89
102
{ACAD_REACTORS
330
96
102
}
100
AcDbEntity
  8
0
  6
CONTINUOUS
 62
     7
100
AcDbSpline
210
0.0
220
0.0
230
1.0
 70
     8
 71
     3
 72
     8
 73
     4
 74
     0
 42
0.0000001
 43
0.0000001
 40
0.0
 40
0.0
 40
0.0
 40
0.0
 40
1.0
 40
1.0
 40
1.0
 40
1.0
 10
54.723834333332611
 20
268.35096034035212
 30
0.0
 10
58.952822929823945
 20
267.78636290175564
 30
0.0
 10
62.774252929824677
 20
266.81413111228255
 30
0.0
 10
66.228274157894006
 20
265.4747935684228
 30
0.0
  0
SPLINE
  5
8A
102
{ACAD_REACTORS
330
96
102
}
100
AcDbEntity
  8
0
  6
CONTINUOUS
 62
     7
100
AcDbSpline
210
0.0
220
0.0
230
1.0
 70
     8
 71
     3
 72
     8
 73
     4
 74
     0
 42
0.0000001
 43
0.0000001
 40
0.0
 40
0.0
 40
0.0
 40
0.0
 40
1.0
 40
1.0
 40
1.0
 40
1.0
 10
66.228274157894006
 20
265.4747935684228
 30
0.0
 10
68.073802508771251
 20
267.14112491929961
 30
0.0
 10
65.029877649122341
 20
268.80749414737028
 30
0.0
 10
63.557553280701235
 20
270.47382549824715
 30
0.0
  0
SPLINE
  5
8B
102
{ACAD_REACTORS
330
96
102
}
100
AcDbEntity
  8
0
  6
CONTINUOUS
 62
     7
100
AcDbSpline
210
0.0
220
0.0
230
1.0
 70
     8
 71
     3
 72
     8
 73
     4
 74
     0
 42
0.0000001
 43
0.0000001
 40
0.0
 40
0.0
 40
0.0
 40
0.0
 40
1.0
 40
1.0
 40
1.0
 40
1.0
 10
63.557553280701235
 20
270.47382549824715
 30
0.0
 10
70.090990298245529
 20
269.23425648070292
 30
0.0
 10
72.85905556140348
 20
267.49262527017703
 30
0.0
 10
75.610076087719392
 20
265.74864567368536
 30
0.0
  0
SPLINE
  5
8C
102
{ACAD_REACTORS
330
96
102
}
100
AcDbEntity
  8
0
  6
CONTINUOUS
 62
     7
100
AcDbSpline
210
0.0
220
0.0
230
1.0
 70
     8
 71
     3
 72
     8
 73
     4
 74
     0
 42
0.0000001
 43
0.0000001
 40
0.0
 40
0.0
 40
0.0
 40
0.0
 40
1.0
 40
1.0
 40
1.0
 40
1.0
 10
75.610076087719392
 20
265.74864567368536
 30
0.0
 10
77.605976894736301
 20
267.66174693684394
 30
0.0
 10
75.72433642807033
 20
269.28762544561533
 30
0.0
 10
74.377438596491274
 20
270.9529719894752
 30
0.0
  0
SPLINE
  5
8D
102
{ACAD_REACTORS
330
96
102
}
100
AcDbEntity
  8
0
  6
CONTINUOUS
 62
     7
100
AcDbSpline
210
0.0
220
0.0
230
1.0
 70
     8
 71
     3
 72
     8
 73
     4
 74
     0
 42
0.0000001
 43
0.0000001
 40
0.0
 40
0.0
 40
0.0
 40
0.0
 40
1.0
 40
1.0
 40
1.0
 40
1.0
 10
74.377438596491274
 20
270.9529719894752
 30
0.0
 10
79.303746315789311
 20
269.12842760350998
 30
0.0
 10
81.841139473683597
 20
266.77284497193125
 30
0.0
 10
84.512617894736792
 20
264.4475640947386
 30
0.0
  0
SPLINE
  5
8E
102
{ACAD_REACTORS
330
96
102
}
100
AcDbEntity
  8
0
  6
CONTINUOUS
 62
     7
100
AcDbSpline
210
0.0
220
0.0
230
1.0
 70
     8
 71
     3
 72
     8
 73
     4
 74
     0
 42
0.0000001
 43
0.0000001
 40
0.0
 40
0.0
 40
0.0
 40
0.0
 40
1.0
 40
1.0
 40
1.0
 40
1.0
 10
84.512617894736792
 20
264.4475640947386
 30
0.0
 10
85.418337333333326
 20
265.66989898947531
 30
0.0
 10
86.813619491228238
 20
266.56580823508949
 30
0.0
 10
85.128955578947512
 20
269.51515374386133
 30
0.0
  0
SPLINE
  5
8F
102
{ACAD_REACTORS
330
96
102
}
100
AcDbEntity
  8
0
  6
CONTINUOUS
 62
     7
100
AcDbSpline
210
0.0
220
0.0
230
1.0
 70
     8
 71
     3
 72
     8
 73
     4
 74
     0
 42
0.0000001
 43
0.0000001
 40
0.0
 40
0.0
 40
0.0
 40
0.0
 40
1.0
 40
1.0
 40
1.0
 40
1.0
 10
85.128955578947512
 20
269.51515374386133
 30
0.0
 10
88.626611333332761
 20
267.499064392984
 30
0.0
 10
91.260894350877194
 20
265.12329321754544
 30
0.0
 10
93.209675929824314
 20
262.46166286666789
 30
0.0
  0
SPLINE
  5
90
102
{ACAD_REACTORS
330
96
102
}
100
AcDbEntity
  8
0
  6
CONTINUOUS
 62
     7
100
AcDbSpline
210
0.0
220
0.0
230
1.0
 70
     8
 71
     3
 72
     8
 73
     4
 74
     0
 42
0.0000001
 43
0.0000001
 40
0.0
 40
0.0
 40
0.0
 40
0.0
 40
1.0
 40
1.0
 40
1.0
 40
1.0
 10
93.209675929824314
 20
262.46166286666789
 30
0.0
 10
95.373751473684308
 20
263.83959727017719
 30
0.0
 10
94.498977701754043
 20
265.72402549824699
 30
0.0
 10
94.5107953859643
 20
267.46069479649287
 30
0.0
  0
SPLINE
  5
91
102
{ACAD_REACTORS
330
96
102
}
100
AcDbEntity
  8
0
  6
CONTINUOUS
 62
     7
100
AcDbSpline
210
0.0
220
0.0
230
1.0
 70
     8
 71
     3
 72
     8
 73
     4
 74
     0
 42
0.0000001
 43
0.0000001
 40
0.0
 40
0.0
 40
0.0
 40
0.0
 40
1.0
 40
1.0
 40
1.0
 40
1.0
 10
94.5107953859643
 20
267.46069479649287
 30
0.0
 10
98.145718087718762
 20
264.50381172631745
 30
0.0
 10
100.45259064912257
 20
261.35716391929986
 30
0.0
 10
103.27633538596466
 20
258.28456602456293
 30
0.0
  0
SPLINE
  5
92
102
{ACAD_REACTORS
330
96
102
}
100
AcDbEntity
  8
0
  6
CONTINUOUS
 62
     7
100
AcDbSpline
210
0.0
220
0.0
230
1.0
 70
     8
 71
     3
 72
     8
 73
     4
 74
     0
 42
0.0000001
 43
0.0000001
 40
0.0
 40
0.0
 40
0.0
 40
0.0
 40
1.0
 40
1.0
 40
1.0
 40
1.0
 10
103.27633538596466
 20
258.28456602456293
 30
0.0
 10
103.84513719298197
 20
258.69871525263312
 30
0.0
 10
104.34318440350806
 20
260.10331520000153
 30
0.0
 10
104.78290073684215
 20
262.32492620000136
 30
0.0
  0
SPLINE
  5
93
102
{ACAD_REACTORS
330
96
102
}
100
AcDbEntity
  8
0
  6
CONTINUOUS
 62
     7
100
AcDbSpline
210
0.0
220
0.0
230
1.0
 70
     8
 71
     3
 72
     8
 73
     4
 74
     0
 42
0.0000001
 43
0.0000001
 40
0.0
 40
0.0
 40
0.0
 40
0.0
 40
1.0
 40
1.0
 40
1.0
 40
1.0
 10
104.78290073684215
 20
262.32492620000136
 30
0.0
 10
113.45488407017477
 20
253.91164409473842
 30
0.0
 10
125.70853477192956
 20
232.72086970877348
 30
0.0
 10
107.93295749122765
 20
224.31895076140461
 30
0.0
  0
SPLINE
  5
94
102
{ACAD_REACTORS
330
96
102
}
100
AcDbEntity
  8
0
  6
CONTINUOUS
 62
     7
100
AcDbSpline
210
0.0
220
0.0
230
1.0
 70
     8
 71
     3
 72
     8
 73
     4
 74
     0
 42
0.0000001
 43
0.0000001
 40
0.0
 40
0.0
 40
0.0
 40
0.0
 40
1.0
 40
1.0
 40
1.0
 40
1.0
 10
107.93295749122765
 20
224.31895076140461
 30
0.0
 10
92.804806614034774
 20
236.79569812982595
 30
0.0
 10
74.737385561402917
 20
245.86463444561556
 30
0.0
 10
54.715501350877155
 20
252.66775707719458
 30
0.0
  0
LINE
  5
95
102
{ACAD_REACTORS
330
96
102
}
100
AcDbEntity
  8
0
  6
CONTINUOUS
 62
     7
100
AcDbLine
 10
54.715501
 20
252.667757
 30
0.0
 11
54.720766
 21
252.671204
 31
0.0
  0
HATCH
  5
96
100
AcDbEntity
  8
0
 62
    62
100
AcDbHatch
 10
0.0
 20
0.0
 30
0.0
210
0.0
220
0.0
230
1.0
  2
SOLID
 70
     1
 71
     1
 91
        1
 92
        1
 93
       33
 72
     4
 94
        3
 73
     0
 74
     0
 95
        8
 96
        4
 40
0.0
 40
0.0
 40
0.0
 40
0.0
 40
1.0
 40
1.0
 40
1.0
 40
1.0
 10
54.720766280701305
 20
252.67120390175552
 10
80.45756136842094
 20
239.40244442807131
 10
95.419810140351075
 20
228.6688054807029
 10
103.61643470175413
 20
219.52714495438696
 72
     4
 94
        3
 73
     0
 74
     0
 95
        8
 96
        4
 40
0.0
 40
0.0
 40
0.0
 40
0.0
 40
1.0
 40
1.0
 40
1.0
 40
1.0
 10
103.61643470175413
 20
219.52714495438696
 10
99.418884175438151
 20
202.70285337543973
 10
77.52056382456135
 20
201.93508267368534
 10
69.513325228070244
 20
202.40703249824676
 72
     4
 94
        3
 73
     0
 74
     0
 95
        8
 96
        4
 40
0.0
 40
0.0
 40
0.0
 40
0.0
 40
1.0
 40
1.0
 40
1.0
 40
1.0
 10
69.513325228070244
 20
202.40703249824676
 10
71.152801649122736
 20
203.1701443052643
 10
72.520736473684224
 20
204.08415884912392
 10
73.005791807016976
 20
205.48860728772041
 72
     4
 94
        3
 73
     0
 74
     0
 95
        8
 96
        4
 40
0.0
 40
0.0
 40
0.0
 40
0.0
 40
1.0
 40
1.0
 40
1.0
 40
1.0
 10
73.005791807016976
 20
205.48860728772041
 10
70.996596105263109
 20
206.9165017087731
 10
63.872464263157823
 20
205.63905171052744
 10
58.898810052631084
 20
208.43325602456255
 72
     4
 94
        3
 73
     0
 74
     0
 95
        8
 96
        4
 40
0.0
 40
0.0
 40
0.0
 40
0.0
 40
1.0
 40
1.0
 40
1.0
 40
1.0
 10
58.898810052631084
 20
208.43325602456255
 10
60.809373543859635
 20
208.82907269122927
 10
61.703048035087036
 20
209.21466251579076
 10
62.596722526315382
 20
210.62460314736953
 72
     4
 94
        3
 73
     0
 74
     0
 95
        8
 96
        4
 40
0.0
 40
0.0
 40
0.0
 40
0.0
 40
1.0
 40
1.0
 40
1.0
 40
1.0
 10
62.596722526315382
 20
210.62460314736953
 10
57.89767796491185
 20
212.12329004210642
 10
52.83614866666607
 20
213.41478869122898
 10
49.859380070175561
 20
215.89748718245707
 72
     4
 94
        3
 73
     0
 74
     0
 95
        8
 96
        4
 40
0.0
 40
0.0
 40
0.0
 40
0.0
 40
1.0
 40
1.0
 40
1.0
 40
1.0
 10
49.859380070175561
 20
215.89748718245707
 10
51.465865456140364
 20
215.87763953333464
 10
52.965764421052747
 20
215.53810837543949
 10
55.063706385965077
 20
216.99316074386078
 72
     4
 94
        3
 73
     0
 74
     0
 95
        8
 96
        4
 40
0.0
 40
0.0
 40
0.0
 40
0.0
 40
1.0
 40
1.0
 40
1.0
 40
1.0
 10
55.063706385965077
 20
216.99316074386078
 10
50.854792701753809
 20
219.26132281403645
 10
46.363693929824286
 20
221.05889863859758
 10
42.87444691228017
 20
224.52579811228162
 72
     4
 94
        3
 73
     0
 74
     0
 95
        8
 96
        4
 40
0.0
 40
0.0
 40
0.0
 40
0.0
 40
1.0
 40
1.0
 40
1.0
 40
1.0
 10
42.87444691228017
 20
224.52579811228162
 10
45.050567403508438
 20
224.57906480877281
 10
47.396604982455827
 20
224.54731235789572
 10
48.078773228069686
 20
225.34754381403616
 72
     4
 94
        3
 73
     0
 74
     0
 95
        8
 96
        4
 40
0.0
 40
0.0
 40
0.0
 40
0.0
 40
1.0
 40
1.0
 40
1.0
 40
1.0
 10
48.078773228069686
 20
225.34754381403616
 10
44.22666270175398
 20
227.73407211228209
 10
40.976420771929504
 20
230.38824065614139
 10
38.286003754385654
 20
233.291148726317
 72
     4
 94
        3
 73
     0
 74
     0
 95
        8
 96
        4
 40
0.0
 40
0.0
 40
0.0
 40
0.0
 40
1.0
 40
1.0
 40
1.0
 40
1.0
 10
38.286003754385654
 20
233.291148726317
 10
41.331330070175099
 20
232.92354299298381
 10
42.617260771929217
 20
233.24009784561542
 10
43.353593403508228
 20
233.77052248070291
 72
     4
 94
        3
 73
     0
 74
     0
 95
        8
 96
        4
 40
0.0
 40
0.0
 40
0.0
 40
0.0
 40
1.0
 40
1.0
 40
1.0
 40
1.0
 10
43.353593403508228
 20
233.77052248070291
 10
40.441670561403249
 20
236.7530484105273
 10
36.756143929824297
 20
239.27142721754561
 10
34.999020947368123
 20
242.94665125263279
 72
     4
 94
        3
 73
     0
 74
     0
 95
        8
 96
        4
 40
0.0
 40
0.0
 40
0.0
 40
0.0
 40
1.0
 40
1.0
 40
1.0
 40
1.0
 10
34.999020947368123
 20
242.94665125263279
 10
37.260137859648786
 20
242.16732800701911
 10
39.32876287719268
 20
241.86900723508936
 10
40.819987964911959
 20
243.01513321754527
 72
     4
 94
        3
 73
     0
 74
     0
 95
        8
 96
        4
 40
0.0
 40
0.0
 40
0.0
 40
0.0
 40
1.0
 40
1.0
 40
1.0
 40
1.0
 10
40.819987964911959
 20
243.01513321754527
 10
39.830484175438286
 20
245.24742558596597
 10
35.591041473683951
 20
246.56407469122973
 10
33.150235157894436
 20
251.78067321754551
 72
     4
 94
        3
 73
     0
 74
     0
 95
        8
 96
        4
 40
0.0
 40
0.0
 40
0.0
 40
0.0
 40
1.0
 40
1.0
 40
1.0
 40
1.0
 10
33.150235157894436
 20
251.78067321754551
 10
35.530589473683904
 20
251.54985717894849
 10
38.055331649122508
 20
251.26133902456269
 10
38.560234631578673
 20
251.78067321754551
 72
     4
 94
        3
 73
     0
 74
     0
 95
        8
 96
        4
 40
0.0
 40
0.0
 40
0.0
 40
0.0
 40
1.0
 40
1.0
 40
1.0
 40
1.0
 10
38.560234631578673
 20
251.78067321754551
 10
37.455356912280408
 20
256.28199883158067
 10
35.559603403508447
 20
258.81257409473812
 10
33.700211999999702
 20
261.43443339298364
 72
     4
 94
        3
 73
     0
 74
     0
 95
        8
 96
        4
 40
0.0
 40
0.0
 40
0.0
 40
0.0
 40
1.0
 40
1.0
 40
1.0
 40
1.0
 10
33.700211999999702
 20
261.43443339298364
 10
38.794694456140071
 20
261.51018777894888
 10
46.513308842105381
 20
261.41473725263307
 10
46.163702350876484
 20
261.84540093684365
 72
     1
 10
46.163702350876484
 20
261.84540093684365
 11
43.01364559649101
 21
265.06393965614166
 72
     4
 94
        3
 73
     0
 74
     0
 95
        8
 96
        4
 40
0.0
 40
0.0
 40
0.0
 40
0.0
 40
1.0
 40
1.0
 40
1.0
 40
1.0
 10
43.01364559649101
 20
265.06393965614166
 10
47.989951210526463
 20
266.40373172631695
 10
53.081782263157969
 20
264.8487365964927
 10
56.778217526315629
 20
263.6943382350895
 72
     4
 94
        3
 73
     0
 74
     0
 95
        8
 96
        4
 40
0.0
 40
0.0
 40
0.0
 40
0.0
 40
1.0
 40
1.0
 40
1.0
 40
1.0
 10
56.778217526315629
 20
263.6943382350895
 10
58.437958245613785
 20
265.00401793684341
 10
56.748824824560778
 20
266.66012244561574
 10
54.723834333332611
 20
268.35096034035212
 72
     4
 94
        3
 73
     0
 74
     0
 95
        8
 96
        4
 40
0.0
 40
0.0
 40
0.0
 40
0.0
 40
1.0
 40
1.0
 40
1.0
 40
1.0
 10
54.723834333332611
 20
268.35096034035212
 10
58.952822929823945
 20
267.78636290175564
 10
62.774252929824677
 20
266.81413111228255
 10
66.228274157894006
 20
265.4747935684228
 72
     4
 94
        3
 73
     0
 74
     0
 95
        8
 96
        4
 40
0.0
 40
0.0
 40
0.0
 40
0.0
 40
1.0
 40
1.0
 40
1.0
 40
1.0
 10
66.228274157894006
 20
265.4747935684228
 10
68.073802508771251
 20
267.14112491929961
 10
65.029877649122341
 20
268.80749414737028
 10
63.557553280701235
 20
270.47382549824715
 72
     4
 94
        3
 73
     0
 74
     0
 95
        8
 96
        4
 40
0.0
 40
0.0
 40
0.0
 40
0.0
 40
1.0
 40
1.0
 40
1.0
 40
1.0
 10
63.557553280701235
 20
270.47382549824715
 10
70.090990298245529
 20
269.23425648070292
 10
72.85905556140348
 20
267.49262527017703
 10
75.610076087719392
 20
265.74864567368536
 72
     4
 94
        3
 73
     0
 74
     0
 95
        8
 96
        4
 40
0.0
 40
0.0
 40
0.0
 40
0.0
 40
1.0
 40
1.0
 40
1.0
 40
1.0
 10
75.610076087719392
 20
265.74864567368536
 10
77.605976894736301
 20
267.66174693684394
 10
75.72433642807033
 20
269.28762544561533
 10
74.377438596491274
 20
270.9529719894752
 72
     4
 94
        3
 73
     0
 74
     0
 95
        8
 96
        4
 40
0.0
 40
0.0
 40
0.0
 40
0.0
 40
1.0
 40
1.0
 40
1.0
 40
1.0
 10
74.377438596491274
 20
270.9529719894752
 10
79.303746315789311
 20
269.12842760350998
 10
81.841139473683597
 20
266.77284497193125
 10
84.512617894736792
 20
264.4475640947386
 72
     4
 94
        3
 73
     0
 74
     0
 95
        8
 96
        4
 40
0.0
 40
0.0
 40
0.0
 40
0.0
 40
1.0
 40
1.0
 40
1.0
 40
1.0
 10
84.512617894736792
 20
264.4475640947386
 10
85.418337333333326
 20
265.66989898947531
 10
86.813619491228238
 20
266.56580823508949
 10
85.128955578947512
 20
269.51515374386133
 72
     4
 94
        3
 73
     0
 74
     0
 95
        8
 96
        4
 40
0.0
 40
0.0
 40
0.0
 40
0.0
 40
1.0
 40
1.0
 40
1.0
 40
1.0
 10
85.128955578947512
 20
269.51515374386133
 10
88.626611333332761
 20
267.499064392984
 10
91.260894350877194
 20
265.12329321754544
 10
93.209675929824314
 20
262.46166286666789
 72
     4
 94
        3
 73
     0
 74
     0
 95
        8
 96
        4
 40
0.0
 40
0.0
 40
0.0
 40
0.0
 40
1.0
 40
1.0
 40
1.0
 40
1.0
 10
93.209675929824314
 20
262.46166286666789
 10
95.373751473684308
 20
263.83959727017719
 10
94.498977701754043
 20
265.72402549824699
 10
94.5107953859643
 20
267.46069479649287
 72
     4
 94
        3
 73
     0
 74
     0
 95
        8
 96
        4
 40
0.0
 40
0.0
 40
0.0
 40
0.0
 40
1.0
 40
1.0
 40
1.0
 40
1.0
 10
94.5107953859643
 20
267.46069479649287
 10
98.145718087718762
 20
264.50381172631745
 10
100.45259064912257
 20
261.35716391929986
 10
103.27633538596466
 20
258.28456602456293
 72
     4
 94
        3
 73
     0
 74
     0
 95
        8
 96
        4
 40
0.0
 40
0.0
 40
0.0
 40
0.0
 40
1.0
 40
1.0
 40
1.0
 40
1.0
 10
103.27633538596466
 20
258.28456602456293
 10
103.84513719298197
 20
258.69871525263312
 10
104.34318440350806
 20
260.10331520000153
 10
104.78290073684215
 20
262.32492620000136
 72
     4
 94
        3
 73
     0
 74
     0
 95
        8
 96
        4
 40
0.0
 40
0.0
 40
0.0
 40
0.0
 40
1.0
 40
1.0
 40
1.0
 40
1.0
 10
104.78290073684215
 20
262.32492620000136
 10
113.45488407017477
 20
253.91164409473842
 10
125.70853477192956
 20
232.72086970877348
 10
107.93295749122765
 20
224.31895076140461
 72
     4
 94
        3
 73
     0
 74
     0
 95
        8
 96
        4
 40
0.0
 40
0.0
 40
0.0
 40
0.0
 40
1.0
 40
1.0
 40
1.0
 40
1.0
 10
107.93295749122765
 20
224.31895076140461
 10
92.804806614034774
 20
236.79569812982595
 10
74.737385561402917
 20
245.86463444561556
 10
54.715501350877155
 20
252.66775707719458
 72
     1
 10
54.715501350877155
 20
252.66775707719458
 11
54.720766280701305
 21
252.67120390175552
 97
       33
330
75
330
76
330
77
330
78
330
79
330
7A
330
7B
330
7C
330
7D
330
7E
330
7F
330
80
330
81
330
82
330
83
330
84
330
85
330
86
330
87
330
88
330
89
330
8A
330
8B
330
8C
330
8D
330
8E
330
8F
330
90
330
91
330
92
330
93
330
94
330
95
 75
     0
 76
     1
 98
        0
  0
SPLINE
  5
97
102
{ACAD_REACTORS
330
B8
102
}
100
AcDbEntity
  8
0
  6
CONTINUOUS
 62
     7
100
AcDbSpline
210
0.0
220
0.0
230
1.0
 70
     8
 71
     3
 72
     8
 73
     4
 74
     0
 42
0.0000001
 43
0.0000001
 40
0.0
 40
0.0
 40
0.0
 40
0.0
 40
1.0
 40
1.0
 40
1.0
 40
1.0
 10
191.27941014035116
 20
252.67120390175401
 30
0.0
 10
165.54564522807036
 20
239.40130811228008
 30
0.0
 10
150.58415399999984
 20
228.67069934035061
 30
0.0
 10
142.38752943859669
 20
219.52714495438528
 30
0.0
  0
SPLINE
  5
98
102
{ACAD_REACTORS
330
B8
102
}
100
AcDbEntity
  8
0
  6
CONTINUOUS
 62
     7
100
AcDbSpline
210
0.0
220
0.0
230
1.0
 70
     8
 71
     3
 72
     8
 73
     4
 74
     0
 42
0.0000001
 43
0.0000001
 40
0.0
 40
0.0
 40
0.0
 40
0.0
 40
1.0
 40
1.0
 40
1.0
 40
1.0
 10
142.38752943859669
 20
219.52714495438528
 30
0.0
 10
146.58507996491281
 20
202.70285337543834
 30
0.0
 10
168.48340031578937
 20
201.93508267368395
 30
0.0
 10
176.49063891228076
 20
202.40703249824537
 30
0.0
  0
SPLINE
  5
99
102
{ACAD_REACTORS
330
B8
102
}
100
AcDbEntity
  8
0
  6
CONTINUOUS
 62
     7
100
AcDbSpline
210
0.0
220
0.0
230
1.0
 70
     8
 71
     3
 72
     8
 73
     4
 74
     0
 42
0.0000001
 43
0.0000001
 40
0.0
 40
0.0
 40
0.0
 40
0.0
 40
1.0
 40
1.0
 40
1.0
 40
1.0
 10
176.49063891228076
 20
202.40703249824537
 30
0.0
 10
174.85116249122851
 20
203.17014430526288
 30
0.0
 10
173.48322766666686
 20
204.08415884912259
 30
0.0
 10
172.99817233333386
 20
205.48860728771902
 30
0.0
  0
SPLINE
  5
9A
102
{ACAD_REACTORS
330
B8
102
}
100
AcDbEntity
  8
0
  6
CONTINUOUS
 62
     7
100
AcDbSpline
210
0.0
220
0.0
230
1.0
 70
     8
 71
     3
 72
     8
 73
     4
 74
     0
 42
0.0000001
 43
0.0000001
 40
0.0
 40
0.0
 40
0.0
 40
0.0
 40
1.0
 40
1.0
 40
1.0
 40
1.0
 10
172.99817233333386
 20
205.48860728771902
 30
0.0
 10
175.00736803508801
 20
206.9165017087717
 30
0.0
 10
182.13149987719271
 20
205.63905171052599
 30
0.0
 10
187.10515408771937
 20
208.43325602456108
 30
0.0
  0
SPLINE
  5
9B
102
{ACAD_REACTORS
330
B8
102
}
100
AcDbEntity
  8
0
  6
CONTINUOUS
 62
     7
100
AcDbSpline
210
0.0
220
0.0
230
1.0
 70
     8
 71
     3
 72
     8
 73
     4
 74
     0
 42
0.0000001
 43
0.0000001
 40
0.0
 40
0.0
 40
0.0
 40
0.0
 40
1.0
 40
1.0
 40
1.0
 40
1.0
 10
187.10515408771937
 20
208.43325602456108
 30
0.0
 10
185.19459059649157
 20
208.82907269122779
 30
0.0
 10
184.30091610526324
 20
209.2146625157894
 30
0.0
 10
183.40724161403489
 20
210.62460314736791
 30
0.0
  0
SPLINE
  5
9C
102
{ACAD_REACTORS
330
B8
102
}
100
AcDbEntity
  8
0
  6
CONTINUOUS
 62
     7
100
AcDbSpline
210
0.0
220
0.0
230
1.0
 70
     8
 71
     3
 72
     8
 73
     4
 74
     0
 42
0.0000001
 43
0.0000001
 40
0.0
 40
0.0
 40
0.0
 40
0.0
 40
1.0
 40
1.0
 40
1.0
 40
1.0
 10
183.40724161403489
 20
210.62460314736791
 30
0.0
 10
188.10628617543861
 20
212.12329004210528
 30
0.0
 10
193.16781547368416
 20
213.41478869122781
 30
0.0
 10
196.14458407017545
 20
215.89748718245568
 30
0.0
  0
SPLINE
  5
9D
102
{ACAD_REACTORS
330
B8
102
}
100
AcDbEntity
  8
0
  6
CONTINUOUS
 62
     7
100
AcDbSpline
210
0.0
220
0.0
230
1.0
 70
     8
 71
     3
 72
     8
 73
     4
 74
     0
 42
0.0000001
 43
0.0000001
 40
0.0
 40
0.0
 40
0.0
 40
0.0
 40
1.0
 40
1.0
 40
1.0
 40
1.0
 10
196.14458407017545
 20
215.89748718245568
 30
0.0
 10
194.53809868421061
 20
215.87763953333283
 30
0.0
 10
193.03819971929838
 20
215.53810837543861
 30
0.0
 10
190.94025775438587
 20
216.99316074385939
 30
0.0
  0
SPLINE
  5
9E
102
{ACAD_REACTORS
330
B8
102
}
100
AcDbEntity
  8
0
  6
CONTINUOUS
 62
     7
100
AcDbSpline
210
0.0
220
0.0
230
1.0
 70
     8
 71
     3
 72
     8
 73
     4
 74
     0
 42
0.0000001
 43
0.0000001
 40
0.0
 40
0.0
 40
0.0
 40
0.0
 40
1.0
 40
1.0
 40
1.0
 40
1.0
 10
190.94025775438587
 20
216.99316074385939
 30
0.0
 10
195.14917143859626
 20
219.26132281403474
 30
0.0
 10
199.6402702105257
 20
221.05889863859582
 30
0.0
 10
203.12951722807017
 20
224.52579811228046
 30
0.0
  0
SPLINE
  5
9F
102
{ACAD_REACTORS
330
B8
102
}
100
AcDbEntity
  8
0
  6
CONTINUOUS
 62
     7
100
AcDbSpline
210
0.0
220
0.0
230
1.0
 70
     8
 71
     3
 72
     8
 73
     4
 74
     0
 42
0.0000001
 43
0.0000001
 40
0.0
 40
0.0
 40
0.0
 40
0.0
 40
1.0
 40
1.0
 40
1.0
 40
1.0
 10
203.12951722807017
 20
224.52579811228046
 30
0.0
 10
200.953396736842
 20
224.57906480877188
 30
0.0
 10
198.60735915789442
 20
224.54731235789464
 30
0.0
 10
197.92519091228061
 20
225.34754381403476
 30
0.0
  0
SPLINE
  5
A0
102
{ACAD_REACTORS
330
B8
102
}
100
AcDbEntity
  8
0
  6
CONTINUOUS
 62
     7
100
AcDbSpline
210
0.0
220
0.0
230
1.0
 70
     8
 71
     3
 72
     8
 73
     4
 74
     0
 42
0.0000001
 43
0.0000001
 40
0.0
 40
0.0
 40
0.0
 40
0.0
 40
1.0
 40
1.0
 40
1.0
 40
1.0
 10
197.92519091228061
 20
225.34754381403476
 30
0.0
 10
201.77730143859648
 20
227.73407211228064
 30
0.0
 10
205.02754336842128
 20
230.38824065613997
 30
0.0
 10
207.71796038596469
 20
233.29114872631544
 30
0.0
  0
SPLINE
  5
A1
102
{ACAD_REACTORS
330
B8
102
}
100
AcDbEntity
  8
0
  6
CONTINUOUS
 62
     7
100
AcDbSpline
210
0.0
220
0.0
230
1.0
 70
     8
 71
     3
 72
     8
 73
     4
 74
     0
 42
0.0000001
 43
0.0000001
 40
0.0
 40
0.0
 40
0.0
 40
0.0
 40
1.0
 40
1.0
 40
1.0
 40
1.0
 10
207.71796038596469
 20
233.29114872631544
 30
0.0
 10
204.67263407017484
 20
232.92354299298182
 30
0.0
 10
203.38670336842083
 20
233.24009784561389
 30
0.0
 10
202.65037073684223
 20
233.77052248070166
 30
0.0
  0
SPLINE
  5
A2
102
{ACAD_REACTORS
330
B8
102
}
100
AcDbEntity
  8
0
  6
CONTINUOUS
 62
     7
100
AcDbSpline
210
0.0
220
0.0
230
1.0
 70
     8
 71
     3
 72
     8
 73
     4
 74
     0
 42
0.0000001
 43
0.0000001
 40
0.0
 40
0.0
 40
0.0
 40
0.0
 40
1.0
 40
1.0
 40
1.0
 40
1.0
 10
202.65037073684223
 20
233.77052248070166
 30
0.0
 10
205.56229357894716
 20
236.75304841052613
 30
0.0
 10
209.24782021052596
 20
239.27142721754336
 30
0.0
 10
211.00494319298195
 20
242.94665125263126
 30
0.0
  0
SPLINE
  5
A3
102
{ACAD_REACTORS
330
B8
102
}
100
AcDbEntity
  8
0
  6
CONTINUOUS
 62
     7
100
AcDbSpline
210
0.0
220
0.0
230
1.0
 70
     8
 71
     3
 72
     8
 73
     4
 74
     0
 42
0.0000001
 43
0.0000001
 40
0.0
 40
0.0
 40
0.0
 40
0.0
 40
1.0
 40
1.0
 40
1.0
 40
1.0
 10
211.00494319298195
 20
242.94665125263126
 30
0.0
 10
208.74382628070151
 20
242.16732800701695
 30
0.0
 10
206.67520126315736
 20
241.86900723508754
 30
0.0
 10
205.18397617543854
 20
243.01513321754331
 30
0.0
  0
SPLINE
  5
A4
102
{ACAD_REACTORS
330
B8
102
}
100
AcDbEntity
  8
0
  6
CONTINUOUS
 62
     7
100
AcDbSpline
210
0.0
220
0.0
230
1.0
 70
     8
 71
     3
 72
     8
 73
     4
 74
     0
 42
0.0000001
 43
0.0000001
 40
0.0
 40
0.0
 40
0.0
 40
0.0
 40
1.0
 40
1.0
 40
1.0
 40
1.0
 10
205.18397617543854
 20
243.01513321754331
 30
0.0
 10
206.17347996491173
 20
245.24742558596435
 30
0.0
 10
210.41292266666676
 20
246.56407469122749
 30
0.0
 10
212.85372898245575
 20
251.78067321754327
 30
0.0
  0
SPLINE
  5
A5
102
{ACAD_REACTORS
330
B8
102
}
100
AcDbEntity
  8
0
  6
CONTINUOUS
 62
     7
100
AcDbSpline
210
0.0
220
0.0
230
1.0
 70
     8
 71
     3
 72
     8
 73
     4
 74
     0
 42
0.0000001
 43
0.0000001
 40
0.0
 40
0.0
 40
0.0
 40
0.0
 40
1.0
 40
1.0
 40
1.0
 40
1.0
 10
212.85372898245575
 20
251.78067321754327
 30
0.0
 10
210.47337466666633
 20
251.54985717894701
 30
0.0
 10
207.94863249122767
 20
251.26133902456098
 30
0.0
 10
207.44372950877164
 20
251.78067321754327
 30
0.0
  0
SPLINE
  5
A6
102
{ACAD_REACTORS
330
B8
102
}
100
AcDbEntity
  8
0
  6
CONTINUOUS
 62
     7
100
AcDbSpline
210
0.0
220
0.0
230
1.0
 70
     8
 71
     3
 72
     8
 73
     4
 74
     0
 42
0.0000001
 43
0.0000001
 40
0.0
 40
0.0
 40
0.0
 40
0.0
 40
1.0
 40
1.0
 40
1.0
 40
1.0
 10
207.44372950877164
 20
251.78067321754327
 30
0.0
 10
208.55061471929778
 20
256.28389269122738
 30
0.0
 10
210.44644398245589
 20
258.81446795438529
 30
0.0
 10
212.30564599999954
 20
261.43632725263132
 30
0.0
  0
SPLINE
  5
A7
102
{ACAD_REACTORS
330
B8
102
}
100
AcDbEntity
  8
0
  6
CONTINUOUS
 62
     7
100
AcDbSpline
210
0.0
220
0.0
230
1.0
 70
     8
 71
     3
 72
     8
 73
     4
 74
     0
 42
0.0000001
 43
0.0000001
 40
0.0
 40
0.0
 40
0.0
 40
0.0
 40
1.0
 40
1.0
 40
1.0
 40
1.0
 10
212.30564599999954
 20
261.43632725263132
 30
0.0
 10
207.21116354385961
 20
261.51197937017491
 30
0.0
 10
199.49254915789408
 20
261.41649854210488
 30
0.0
 10
199.84215564912219
 20
261.84721904210477
 30
0.0
  0
LINE
  5
A8
102
{ACAD_REACTORS
330
B8
102
}
100
AcDbEntity
  8
0
  6
CONTINUOUS
 62
     7
100
AcDbLine
 10
199.842156
 20
261.847219
 30
0.0
 11
202.992212
 21
265.065758
 31
0.0
  0
SPLINE
  5
A9
102
{ACAD_REACTORS
330
B8
102
}
100
AcDbEntity
  8
0
  6
CONTINUOUS
 62
     7
100
AcDbSpline
210
0.0
220
0.0
230
1.0
 70
     8
 71
     3
 72
     8
 73
     4
 74
     0
 42
0.0000001
 43
0.0000001
 40
0.0
 40
0.0
 40
0.0
 40
0.0
 40
1.0
 40
1.0
 40
1.0
 40
1.0
 10
202.99221240350832
 20
265.06575776140323
 30
0.0
 10
198.01590678947392
 20
266.40554983157841
 30
0.0
 10
192.92407573684176
 20
264.85055470175399
 30
0.0
 10
189.22764047368446
 20
263.69615634035011
 30
0.0
  0
SPLINE
  5
AA
102
{ACAD_REACTORS
330
B8
102
}
100
AcDbEntity
  8
0
  6
CONTINUOUS
 62
     7
100
AcDbSpline
210
0.0
220
0.0
230
1.0
 70
     8
 71
     3
 72
     8
 73
     4
 74
     0
 42
0.0000001
 43
0.0000001
 40
0.0
 40
0.0
 40
0.0
 40
0.0
 40
1.0
 40
1.0
 40
1.0
 40
1.0
 10
189.22764047368446
 20
263.69615634035011
 30
0.0
 10
187.56789975438559
 20
265.00583604210476
 30
0.0
 10
189.25703317543866
 20
266.66194055087675
 30
0.0
 10
191.2820236666669
 20
268.35277844561369
 30
0.0
  0
SPLINE
  5
AB
102
{ACAD_REACTORS
330
B8
102
}
100
AcDbEntity
  8
0
  6
CONTINUOUS
 62
     7
100
AcDbSpline
210
0.0
220
0.0
230
1.0
 70
     8
 71
     3
 72
     8
 73
     4
 74
     0
 42
0.0000001
 43
0.0000001
 40
0.0
 40
0.0
 40
0.0
 40
0.0
 40
1.0
 40
1.0
 40
1.0
 40
1.0
 10
191.2820236666669
 20
268.35277844561369
 30
0.0
 10
187.05303507017555
 20
267.78818100701693
 30
0.0
 10
183.23160507017528
 20
266.81594921754322
 30
0.0
 10
179.77758384210503
 20
265.47661167368398
 30
0.0
  0
SPLINE
  5
AC
102
{ACAD_REACTORS
330
B8
102
}
100
AcDbEntity
  8
0
  6
CONTINUOUS
 62
     7
100
AcDbSpline
210
0.0
220
0.0
230
1.0
 70
     8
 71
     3
 72
     8
 73
     4
 74
     0
 42
0.0000001
 43
0.0000001
 40
0.0
 40
0.0
 40
0.0
 40
0.0
 40
1.0
 40
1.0
 40
1.0
 40
1.0
 10
179.77758384210503
 20
265.47661167368398
 30
0.0
 10
177.93205549122754
 20
267.14294302456079
 30
0.0
 10
180.97598035087708
 20
268.80931225263106
 30
0.0
 10
182.44830471929833
 20
270.4756436035085
 30
0.0
  0
SPLINE
  5
AD
102
{ACAD_REACTORS
330
B8
102
}
100
AcDbEntity
  8
0
  6
CONTINUOUS
 62
     7
100
AcDbSpline
210
0.0
220
0.0
230
1.0
 70
     8
 71
     3
 72
     8
 73
     4
 74
     0
 42
0.0000001
 43
0.0000001
 40
0.0
 40
0.0
 40
0.0
 40
0.0
 40
1.0
 40
1.0
 40
1.0
 40
1.0
 10
182.44830471929833
 20
270.4756436035085
 30
0.0
 10
175.91486770175439
 20
269.23607458596439
 30
0.0
 10
173.14680243859615
 20
267.49444337543798
 30
0.0
 10
170.39578191228117
 20
265.75046377894671
 30
0.0
  0
SPLINE
  5
AE
102
{ACAD_REACTORS
330
B8
102
}
100
AcDbEntity
  8
0
  6
CONTINUOUS
 62
     7
100
AcDbSpline
210
0.0
220
0.0
230
1.0
 70
     8
 71
     3
 72
     8
 73
     4
 74
     0
 42
0.0000001
 43
0.0000001
 40
0.0
 40
0.0
 40
0.0
 40
0.0
 40
1.0
 40
1.0
 40
1.0
 40
1.0
 10
170.39578191228117
 20
265.75046377894671
 30
0.0
 10
168.39988110526335
 20
267.66356504210444
 30
0.0
 10
170.28152157193003
 20
269.28944355087646
 30
0.0
 10
171.62841940350901
 20
270.95479009473632
 30
0.0
  0
SPLINE
  5
AF
102
{ACAD_REACTORS
330
B8
102
}
100
AcDbEntity
  8
0
  6
CONTINUOUS
 62
     7
100
AcDbSpline
210
0.0
220
0.0
230
1.0
 70
     8
 71
     3
 72
     8
 73
     4
 74
     0
 42
0.0000001
 43
0.0000001
 40
0.0
 40
0.0
 40
0.0
 40
0.0
 40
1.0
 40
1.0
 40
1.0
 40
1.0
 10
171.62841940350901
 20
270.95479009473632
 30
0.0
 10
166.70211168421054
 20
269.13024570877172
 30
0.0
 10
164.16471852631616
 20
266.77466307719226
 30
0.0
 10
161.49324010526323
 20
264.44938219999966
 30
0.0
  0
SPLINE
  5
B0
102
{ACAD_REACTORS
330
B8
102
}
100
AcDbEntity
  8
0
  6
CONTINUOUS
 62
     7
100
AcDbSpline
210
0.0
220
0.0
230
1.0
 70
     8
 71
     3
 72
     8
 73
     4
 74
     0
 42
0.0000001
 43
0.0000001
 40
0.0
 40
0.0
 40
0.0
 40
0.0
 40
1.0
 40
1.0
 40
1.0
 40
1.0
 10
161.49324010526323
 20
264.44938219999966
 30
0.0
 10
160.58752066666688
 20
265.67171709473638
 30
0.0
 10
159.19223850877194
 20
266.56762634035033
 30
0.0
 10
160.87690242105236
 20
269.51697184912217
 30
0.0
  0
SPLINE
  5
B1
102
{ACAD_REACTORS
330
B8
102
}
100
AcDbEntity
  8
0
  6
CONTINUOUS
 62
     7
100
AcDbSpline
210
0.0
220
0.0
230
1.0
 70
     8
 71
     3
 72
     8
 73
     4
 74
     0
 42
0.0000001
 43
0.0000001
 40
0.0
 40
0.0
 40
0.0
 40
0.0
 40
1.0
 40
1.0
 40
1.0
 40
1.0
 10
160.87690242105236
 20
269.51697184912217
 30
0.0
 10
157.37924666666703
 20
267.50088249824489
 30
0.0
 10
154.74496364912341
 20
265.12511132280684
 30
0.0
 10
152.79618207017589
 20
262.46348097192964
 30
0.0
  0
SPLINE
  5
B2
102
{ACAD_REACTORS
330
B8
102
}
100
AcDbEntity
  8
0
  6
CONTINUOUS
 62
     7
100
AcDbSpline
210
0.0
220
0.0
230
1.0
 70
     8
 71
     3
 72
     8
 73
     4
 74
     0
 42
0.0000001
 43
0.0000001
 40
0.0
 40
0.0
 40
0.0
 40
0.0
 40
1.0
 40
1.0
 40
1.0
 40
1.0
 10
152.79618207017589
 20
262.46348097192964
 30
0.0
 10
150.63210652631568
 20
263.84141537543803
 30
0.0
 10
151.50688029824559
 20
265.72584360350828
 30
0.0
 10
151.4950626140355
 20
267.46251290175405
 30
0.0
  0
SPLINE
  5
B3
102
{ACAD_REACTORS
330
B8
102
}
100
AcDbEntity
  8
0
  6
CONTINUOUS
 62
     7
100
AcDbSpline
210
0.0
220
0.0
230
1.0
 70
     8
 71
     3
 72
     8
 73
     4
 74
     0
 42
0.0000001
 43
0.0000001
 40
0.0
 40
0.0
 40
0.0
 40
0.0
 40
1.0
 40
1.0
 40
1.0
 40
1.0
 10
151.4950626140355
 20
267.46251290175405
 30
0.0
 10
147.86013991228126
 20
264.50562983157818
 30
0.0
 10
145.55326735087792
 20
261.35898202456121
 30
0.0
 10
142.7295226140356
 20
258.2863841298244
 30
0.0
  0
SPLINE
  5
B4
102
{ACAD_REACTORS
330
B8
102
}
100
AcDbEntity
  8
0
  6
CONTINUOUS
 62
     7
100
AcDbSpline
210
0.0
220
0.0
230
1.0
 70
     8
 71
     3
 72
     8
 73
     4
 74
     0
 42
0.0000001
 43
0.0000001
 40
0.0
 40
0.0
 40
0.0
 40
0.0
 40
1.0
 40
1.0
 40
1.0
 40
1.0
 10
142.7295226140356
 20
258.2863841298244
 30
0.0
 10
142.16072080701778
 20
258.70053335789441
 30
0.0
 10
141.66267359649137
 20
260.10513330526248
 30
0.0
 10
141.22295726315855
 20
262.32674430526259
 30
0.0
  0
SPLINE
  5
B5
102
{ACAD_REACTORS
330
B8
102
}
100
AcDbEntity
  8
0
  6
CONTINUOUS
 62
     7
100
AcDbSpline
210
0.0
220
0.0
230
1.0
 70
     8
 71
     3
 72
     8
 73
     4
 74
     0
 42
0.0000001
 43
0.0000001
 40
0.0
 40
0.0
 40
0.0
 40
0.0
 40
1.0
 40
1.0
 40
1.0
 40
1.0
 10
141.22295726315855
 20
262.32674430526259
 30
0.0
 10
132.55097392982466
 20
253.91346219999974
 30
0.0
 10
120.2973232280707
 20
232.72268781403457
 30
0.0
 10
138.07290050877242
 20
224.32076886666636
 30
0.0
  0
SPLINE
  5
B6
102
{ACAD_REACTORS
330
B8
102
}
100
AcDbEntity
  8
0
  6
CONTINUOUS
 62
     7
100
AcDbSpline
210
0.0
220
0.0
230
1.0
 70
     8
 71
     3
 72
     8
 73
     4
 74
     0
 42
0.0000001
 43
0.0000001
 40
0.0
 40
0.0
 40
0.0
 40
0.0
 40
1.0
 40
1.0
 40
1.0
 40
1.0
 10
138.07290050877242
 20
224.32076886666636
 30
0.0
 10
153.19309717543919
 20
236.80016763859629
 30
0.0
 10
171.25938191228065
 20
245.86834641052593
 30
0.0
 10
191.28278121052651
 20
252.67146904210514
 30
0.0
  0
LINE
  5
B7
102
{ACAD_REACTORS
330
B8
102
}
100
AcDbEntity
  8
0
  6
CONTINUOUS
 62
     7
100
AcDbLine
 10
191.282781
 20
252.671469
 30
0.0
 11
191.27941
 21
252.671204
 31
0.0
  0
HATCH
  5
B8
100
AcDbEntity
  8
0
 62
    62
100
AcDbHatch
 10
0.0
 20
0.0
 30
0.0
210
0.0
220
0.0
230
1.0
  2
SOLID
 70
     1
 71
     1
 91
        1
 92
        1
 93
       33
 72
     4
 94
        3
 73
     0
 74
     0
 95
        8
 96
        4
 40
0.0
 40
0.0
 40
0.0
 40
0.0
 40
1.0
 40
1.0
 40
1.0
 40
1.0
 10
191.27941014035116
 20
252.67120390175401
 10
165.54564522807036
 20
239.40130811228008
 10
150.58415399999984
 20
228.67069934035061
 10
142.38752943859669
 20
219.52714495438528
 72
     4
 94
        3
 73
     0
 74
     0
 95
        8
 96
        4
 40
0.0
 40
0.0
 40
0.0
 40
0.0
 40
1.0
 40
1.0
 40
1.0
 40
1.0
 10
142.38752943859669
 20
219.52714495438528
 10
146.58507996491281
 20
202.70285337543834
 10
168.48340031578937
 20
201.93508267368395
 10
176.49063891228076
 20
202.40703249824537
 72
     4
 94
        3
 73
     0
 74
     0
 95
        8
 96
        4
 40
0.0
 40
0.0
 40
0.0
 40
0.0
 40
1.0
 40
1.0
 40
1.0
 40
1.0
 10
176.49063891228076
 20
202.40703249824537
 10
174.85116249122851
 20
203.17014430526288
 10
173.48322766666686
 20
204.08415884912259
 10
172.99817233333386
 20
205.48860728771902
 72
     4
 94
        3
 73
     0
 74
     0
 95
        8
 96
        4
 40
0.0
 40
0.0
 40
0.0
 40
0.0
 40
1.0
 40
1.0
 40
1.0
 40
1.0
 10
172.99817233333386
 20
205.48860728771902
 10
175.00736803508801
 20
206.9165017087717
 10
182.13149987719271
 20
205.63905171052599
 10
187.10515408771937
 20
208.43325602456108
 72
     4
 94
        3
 73
     0
 74
     0
 95
        8
 96
        4
 40
0.0
 40
0.0
 40
0.0
 40
0.0
 40
1.0
 40
1.0
 40
1.0
 40
1.0
 10
187.10515408771937
 20
208.43325602456108
 10
185.19459059649157
 20
208.82907269122779
 10
184.30091610526324
 20
209.2146625157894
 10
183.40724161403489
 20
210.62460314736791
 72
     4
 94
        3
 73
     0
 74
     0
 95
        8
 96
        4
 40
0.0
 40
0.0
 40
0.0
 40
0.0
 40
1.0
 40
1.0
 40
1.0
 40
1.0
 10
183.40724161403489
 20
210.62460314736791
 10
188.10628617543861
 20
212.12329004210528
 10
193.16781547368416
 20
213.41478869122781
 10
196.14458407017545
 20
215.89748718245568
 72
     4
 94
        3
 73
     0
 74
     0
 95
        8
 96
        4
 40
0.0
 40
0.0
 40
0.0
 40
0.0
 40
1.0
 40
1.0
 40
1.0
 40
1.0
 10
196.14458407017545
 20
215.89748718245568
 10
194.53809868421061
 20
215.87763953333283
 10
193.03819971929838
 20
215.53810837543861
 10
190.94025775438587
 20
216.99316074385939
 72
     4
 94
        3
 73
     0
 74
     0
 95
        8
 96
        4
 40
0.0
 40
0.0
 40
0.0
 40
0.0
 40
1.0
 40
1.0
 40
1.0
 40
1.0
 10
190.94025775438587
 20
216.99316074385939
 10
195.14917143859626
 20
219.26132281403474
 10
199.6402702105257
 20
221.05889863859582
 10
203.12951722807017
 20
224.52579811228046
 72
     4
 94
        3
 73
     0
 74
     0
 95
        8
 96
        4
 40
0.0
 40
0.0
 40
0.0
 40
0.0
 40
1.0
 40
1.0
 40
1.0
 40
1.0
 10
203.12951722807017
 20
224.52579811228046
 10
200.953396736842
 20
224.57906480877188
 10
198.60735915789442
 20
224.54731235789464
 10
197.92519091228061
 20
225.34754381403476
 72
     4
 94
        3
 73
     0
 74
     0
 95
        8
 96
        4
 40
0.0
 40
0.0
 40
0.0
 40
0.0
 40
1.0
 40
1.0
 40
1.0
 40
1.0
 10
197.92519091228061
 20
225.34754381403476
 10
201.77730143859648
 20
227.73407211228064
 10
205.02754336842128
 20
230.38824065613997
 10
207.71796038596469
 20
233.29114872631544
 72
     4
 94
        3
 73
     0
 74
     0
 95
        8
 96
        4
 40
0.0
 40
0.0
 40
0.0
 40
0.0
 40
1.0
 40
1.0
 40
1.0
 40
1.0
 10
207.71796038596469
 20
233.29114872631544
 10
204.67263407017484
 20
232.92354299298182
 10
203.38670336842083
 20
233.24009784561389
 10
202.65037073684223
 20
233.77052248070166
 72
     4
 94
        3
 73
     0
 74
     0
 95
        8
 96
        4
 40
0.0
 40
0.0
 40
0.0
 40
0.0
 40
1.0
 40
1.0
 40
1.0
 40
1.0
 10
202.65037073684223
 20
233.77052248070166
 10
205.56229357894716
 20
236.75304841052613
 10
209.24782021052596
 20
239.27142721754336
 10
211.00494319298195
 20
242.94665125263126
 72
     4
 94
        3
 73
     0
 74
     0
 95
        8
 96
        4
 40
0.0
 40
0.0
 40
0.0
 40
0.0
 40
1.0
 40
1.0
 40
1.0
 40
1.0
 10
211.00494319298195
 20
242.94665125263126
 10
208.74382628070151
 20
242.16732800701695
 10
206.67520126315736
 20
241.86900723508754
 10
205.18397617543854
 20
243.01513321754331
 72
     4
 94
        3
 73
     0
 74
     0
 95
        8
 96
        4
 40
0.0
 40
0.0
 40
0.0
 40
0.0
 40
1.0
 40
1.0
 40
1.0
 40
1.0
 10
205.18397617543854
 20
243.01513321754331
 10
206.17347996491173
 20
245.24742558596435
 10
210.41292266666676
 20
246.56407469122749
 10
212.85372898245575
 20
251.78067321754327
 72
     4
 94
        3
 73
     0
 74
     0
 95
        8
 96
        4
 40
0.0
 40
0.0
 40
0.0
 40
0.0
 40
1.0
 40
1.0
 40
1.0
 40
1.0
 10
212.85372898245575
 20
251.78067321754327
 10
210.47337466666633
 20
251.54985717894701
 10
207.94863249122767
 20
251.26133902456098
 10
207.44372950877164
 20
251.78067321754327
 72
     4
 94
        3
 73
     0
 74
     0
 95
        8
 96
        4
 40
0.0
 40
0.0
 40
0.0
 40
0.0
 40
1.0
 40
1.0
 40
1.0
 40
1.0
 10
207.44372950877164
 20
251.78067321754327
 10
208.55061471929778
 20
256.28389269122738
 10
210.44644398245589
 20
258.81446795438529
 10
212.30564599999954
 20
261.43632725263132
 72
     4
 94
        3
 73
     0
 74
     0
 95
        8
 96
        4
 40
0.0
 40
0.0
 40
0.0
 40
0.0
 40
1.0
 40
1.0
 40
1.0
 40
1.0
 10
212.30564599999954
 20
261.43632725263132
 10
207.21116354385961
 20
261.51197937017491
 10
199.49254915789408
 20
261.41649854210488
 10
199.84215564912219
 20
261.84721904210477
 72
     1
 10
199.84215564912219
 20
261.84721904210477
 11
202.99221240350832
 21
265.06575776140323
 72
     4
 94
        3
 73
     0
 74
     0
 95
        8
 96
        4
 40
0.0
 40
0.0
 40
0.0
 40
0.0
 40
1.0
 40
1.0
 40
1.0
 40
1.0
 10
202.99221240350832
 20
265.06575776140323
 10
198.01590678947392
 20
266.40554983157841
 10
192.92407573684176
 20
264.85055470175399
 10
189.22764047368446
 20
263.69615634035011
 72
     4
 94
        3
 73
     0
 74
     0
 95
        8
 96
        4
 40
0.0
 40
0.0
 40
0.0
 40
0.0
 40
1.0
 40
1.0
 40
1.0
 40
1.0
 10
189.22764047368446
 20
263.69615634035011
 10
187.56789975438559
 20
265.00583604210476
 10
189.25703317543866
 20
266.66194055087675
 10
191.2820236666669
 20
268.35277844561369
 72
     4
 94
        3
 73
     0
 74
     0
 95
        8
 96
        4
 40
0.0
 40
0.0
 40
0.0
 40
0.0
 40
1.0
 40
1.0
 40
1.0
 40
1.0
 10
191.2820236666669
 20
268.35277844561369
 10
187.05303507017555
 20
267.78818100701693
 10
183.23160507017528
 20
266.81594921754322
 10
179.77758384210503
 20
265.47661167368398
 72
     4
 94
        3
 73
     0
 74
     0
 95
        8
 96
        4
 40
0.0
 40
0.0
 40
0.0
 40
0.0
 40
1.0
 40
1.0
 40
1.0
 40
1.0
 10
179.77758384210503
 20
265.47661167368398
 10
177.93205549122754
 20
267.14294302456079
 10
180.97598035087708
 20
268.80931225263106
 10
182.44830471929833
 20
270.4756436035085
 72
     4
 94
        3
 73
     0
 74
     0
 95
        8
 96
        4
 40
0.0
 40
0.0
 40
0.0
 40
0.0
 40
1.0
 40
1.0
 40
1.0
 40
1.0
 10
182.44830471929833
 20
270.4756436035085
 10
175.91486770175439
 20
269.23607458596439
 10
173.14680243859615
 20
267.49444337543798
 10
170.39578191228117
 20
265.75046377894671
 72
     4
 94
        3
 73
     0
 74
     0
 95
        8
 96
        4
 40
0.0
 40
0.0
 40
0.0
 40
0.0
 40
1.0
 40
1.0
 40
1.0
 40
1.0
 10
170.39578191228117
 20
265.75046377894671
 10
168.39988110526335
 20
267.66356504210444
 10
170.28152157193003
 20
269.28944355087646
 10
171.62841940350901
 20
270.95479009473632
 72
     4
 94
        3
 73
     0
 74
     0
 95
        8
 96
        4
 40
0.0
 40
0.0
 40
0.0
 40
0.0
 40
1.0
 40
1.0
 40
1.0
 40
1.0
 10
171.62841940350901
 20
270.95479009473632
 10
166.70211168421054
 20
269.13024570877172
 10
164.16471852631616
 20
266.77466307719226
 10
161.49324010526323
 20
264.44938219999966
 72
     4
 94
        3
 73
     0
 74
     0
 95
        8
 96
        4
 40
0.0
 40
0.0
 40
0.0
 40
0.0
 40
1.0
 40
1.0
 40
1.0
 40
1.0
 10
161.49324010526323
 20
264.44938219999966
 10
160.58752066666688
 20
265.67171709473638
 10
159.19223850877194
 20
266.56762634035033
 10
160.87690242105236
 20
269.51697184912217
 72
     4
 94
        3
 73
     0
 74
     0
 95
        8
 96
        4
 40
0.0
 40
0.0
 40
0.0
 40
0.0
 40
1.0
 40
1.0
 40
1.0
 40
1.0
 10
160.87690242105236
 20
269.51697184912217
 10
157.37924666666703
 20
267.50088249824489
 10
154.74496364912341
 20
265.12511132280684
 10
152.79618207017589
 20
262.46348097192964
 72
     4
 94
        3
 73
     0
 74
     0
 95
        8
 96
        4
 40
0.0
 40
0.0
 40
0.0
 40
0.0
 40
1.0
 40
1.0
 40
1.0
 40
1.0
 10
152.79618207017589
 20
262.46348097192964
 10
150.63210652631568
 20
263.84141537543803
 10
151.50688029824559
 20
265.72584360350828
 10
151.4950626140355
 20
267.46251290175405
 72
     4
 94
        3
 73
     0
 74
     0
 95
        8
 96
        4
 40
0.0
 40
0.0
 40
0.0
 40
0.0
 40
1.0
 40
1.0
 40
1.0
 40
1.0
 10
151.4950626140355
 20
267.46251290175405
 10
147.86013991228126
 20
264.50562983157818
 10
145.55326735087792
 20
261.35898202456121
 10
142.7295226140356
 20
258.2863841298244
 72
     4
 94
        3
 73
     0
 74
     0
 95
        8
 96
        4
 40
0.0
 40
0.0
 40
0.0
 40
0.0
 40
1.0
 40
1.0
 40
1.0
 40
1.0
 10
142.7295226140356
 20
258.2863841298244
 10
142.16072080701778
 20
258.70053335789441
 10
141.66267359649137
 20
260.10513330526248
 10
141.22295726315855
 20
262.32674430526259
 72
     4
 94
        3
 73
     0
 74
     0
 95
        8
 96
        4
 40
0.0
 40
0.0
 40
0.0
 40
0.0
 40
1.0
 40
1.0
 40
1.0
 40
1.0
 10
141.22295726315855
 20
262.32674430526259
 10
132.55097392982466
 20
253.91346219999974
 10
120.2973232280707
 20
232.72268781403457
 10
138.07290050877242
 20
224.32076886666636
 72
     4
 94
        3
 73
     0
 74
     0
 95
        8
 96
        4
 40
0.0
 40
0.0
 40
0.0
 40
0.0
 40
1.0
 40
1.0
 40
1.0
 40
1.0
 10
138.07290050877242
 20
224.32076886666636
 10
153.19309717543919
 20
236.80016763859629
 10
171.25938191228065
 20
245.86834641052593
 10
191.28278121052651
 20
252.67146904210514
 72
     1
 10
191.28278121052651
 20
252.67146904210514
 11
191.27941014035116
 21
252.67120390175401
 97
       33
330
97
330
98
330
99
330
9A
330
9B
330
9C
330
9D
330
9E
330
9F
330
A0
330
A1
330
A2
330
A3
330
A4
330
A5
330
A6
330
A7
330
A8
330
A9
330
AA
330
AB
330
AC
330
AD
330
AE
330
AF
330
B0
330
B1
330
B2
330
B3
330
B4
330
B5
330
B6
330
B7
 75
     0
 76
     1
 98
        0
  0
ELLIPSE
  5
B9
102
{ACAD_REACTORS
330
BB
102
}
100
AcDbEntity
  8
0
  6
CONTINUOUS
 62
     7
100
AcDbEllipse
 10
123.339974
 20
81.20061
 30
0.0
 11
-30.82822285884712
 21
-0.0000000000003187
 31
0.0
210
0.0
220
0.0
230
1.0
 40
0.922121
 41
-0.0052720800302892
 42
3.1468647336200739
  0
ELLIPSE
  5
BA
102
{ACAD_REACTORS
330
BB
102
}
100
AcDbEntity
  8
0
  6
CONTINUOUS
 62
     7
100
AcDbEllipse
 10
123.339974
 20
81.500352
 30
0.0
 11
-30.82822285884712
 21
-0.0000000000003187
 31
0.0
210
0.0
220
0.0
230
1.0
 40
0.922121
 41
3.136320573559503
 42
6.2884573872098679
  0
HATCH
  5
BB
100
AcDbEntity
  8
0
 62
   232
100
AcDbHatch
 10
0.0
 20
0.0
 30
0.0
210
0.0
220
0.0
230
1.0
  2
SOLID
 70
     1
 71
     1
 91
        1
 92
        1
 93
        2
 72
     3
 10
123.33997435915613
 20
81.200610341002658
 11
-30.82822285884712
 21
-0.0000000000003187
 40
0.922121
 50
179.697932
 51
0.302068
 73
     0
 72
     3
 10
123.33997435915613
 20
81.500351635046584
 11
-30.82822285884712
 21
-0.0000000000003187
 40
0.922121
 50
359.697932
 51
180.302068
 73
     0
 97
        2
330
B9
330
BA
 75
     0
 76
     1
 98
        0
  0
ELLIPSE
  5
BC
102
{ACAD_REACTORS
330
BE
102
}
100
AcDbEntity
  8
0
  6
CONTINUOUS
 62
     7
100
AcDbEllipse
 10
95.754914
 20
129.942694
 30
0.0
 11
21.624946434127828
 21
32.6514430371762
 31
0.0
210
0.0
220
0.0
230
1.0
 40
0.454544
 41
2.5575647940943953
 42
6.8717351693850475
  0
ELLIPSE
  5
BD
102
{ACAD_REACTORS
330
BE
102
}
100
AcDbEntity
  8
0
  6
CONTINUOUS
 62
     7
100
AcDbEllipse
 10
79.278031
 20
140.737758
 30
0.0
 11
21.624946434127803
 21
32.651443037176165
 31
0.0
210
0.0
220
0.0
230
1.0
 40
0.454544
 41
-0.5840278594953965
 42
3.7301425157952526
  0
HATCH
  5
BE
100
AcDbEntity
  8
0
 62
   232
100
AcDbHatch
 10
0.0
 20
0.0
 30
0.0
210
0.0
220
0.0
230
1.0
  2
SOLID
 70
     1
 71
     1
 91
        1
 92
        1
 93
        2
 72
     3
 10
95.754913988599171
 20
129.94269378325274
 11
21.624946434127828
 21
32.6514430371762
 40
0.454544
 50
326.278577
 51
213.462331
 73
     0
 72
     3
 10
79.278030955714769
 20
140.73775750639487
 11
21.624946434127803
 21
32.651443037176165
 40
0.454544
 50
146.278577
 51
33.462331
 73
     0
 97
        2
330
BC
330
BD
 75
     0
 76
     1
 98
        0
  0
ELLIPSE
  5
BF
102
{ACAD_REACTORS
330
C1
102
}
100
AcDbEntity
  8
0
  6
CONTINUOUS
 62
     7
100
AcDbEllipse
 10
149.726428
 20
131.457782
 30
0.0
 11
-21.624946434128063
 21
32.651443037176037
 31
0.0
210
0.0
220
0.0
230
1.0
 40
0.454544
 41
-6.8717351693850475
 42
-2.5575647940943953
  0
ELLIPSE
  5
C0
102
{ACAD_REACTORS
330
C1
102
}
100
AcDbEntity
  8
0
  6
CONTINUOUS
 62
     7
100
AcDbEllipse
 10
166.203311
 20
142.252845
 30
0.0
 11
-21.624946434128042
 21
32.651443037176008
 31
0.0
210
0.0
220
0.0
230
1.0
 40
0.454544
 41
-3.7301425157952526
 42
0.5840278594953965
  0
HATCH
  5
C1
100
AcDbEntity
  8
0
 62
   232
100
AcDbHatch
 10
0.0
 20
0.0
 30
0.0
210
0.0
220
0.0
230
1.0
  2
SOLID
 70
     1
 71
     1
 91
        1
 92
        1
 93
        2
 72
     3
 10
149.72642821841978
 20
131.45778150254722
 11
-21.624946434128063
 21
32.651443037176037
 40
0.454544
 50
326.278577
 51
213.462331
 73
     1
 72
     3
 10
166.20331125130411
 20
142.2528452256895
 11
-21.624946434128042
 21
32.651443037176008
 40
0.454544
 50
146.278577
 51
33.462331
 73
     1
 97
        2
330
BF
330
C0
 75
     0
 76
     1
 98
        0
  0
SPLINE
  5
C2
102
{ACAD_REACTORS
330
C4
102
}
100
AcDbEntity
  8
0
  6
CONTINUOUS
 62
     7
100
AcDbSpline
210
0.0
220
0.0
230
1.0
 70
     8
 71
     3
 72
     8
 73
     4
 74
     0
 42
0.0000001
 43
0.0000001
 40
0.0
 40
0.0
 40
0.0
 40
0.0
 40
1.0
 40
1.0
 40
1.0
 40
1.0
 10
41.660710140351654
 20
148.87481688421011
 30
0.0
 10
55.451796105264236
 20
152.57163091929797
 30
0.0
 10
46.316574701755442
 20
91.820401094737505
 30
0.0
 10
35.095456280702543
 20
96.805039691228643
 30
0.0
  0
SPLINE
  5
C3
102
{ACAD_REACTORS
330
C4
102
}
100
AcDbEntity
  8
0
  6
CONTINUOUS
 62
     7
100
AcDbSpline
210
0.0
220
0.0
230
1.0
 70
     8
 71
     3
 72
     8
 73
     4
 74
     0
 42
0.0000001
 43
0.0000001
 40
0.0
 40
0.0
 40
0.0
 40
0.0
 40
1.0
 40
1.0
 40
1.0
 40
1.0
 10
35.095456280702543
 20
96.805039691228643
 30
0.0
 10
22.752415403509147
 20
106.73265197193027
 30
0.0
 10
18.776825228070379
 20
135.80718530526335
 30
0.0
 10
41.660710140351654
 20
148.87481688421011
 30
0.0
  0
HATCH
  5
C4
100
AcDbEntity
  8
0
 62
   232
100
AcDbHatch
 10
0.0
 20
0.0
 30
0.0
210
0.0
220
0.0
230
1.0
  2
SOLID
 70
     1
 71
     1
 91
        1
 92
        1
 93
        2
 72
     4
 94
        3
 73
     0
 74
     0
 95
        8
 96
        4
 40
0.0
 40
0.0
 40
0.0
 40
0.0
 40
1.0
 40
1.0
 40
1.0
 40
1.0
 10
41.660710140351654
 20
148.87481688421011
 10
55.451796105264236
 20
152.57163091929797
 10
46.316574701755442
 20
91.820401094737505
 10
35.095456280702543
 20
96.805039691228643
 72
     4
 94
        3
 73
     0
 74
     0
 95
        8
 96
        4
 40
0.0
 40
0.0
 40
0.0
 40
0.0
 40
1.0
 40
1.0
 40
1.0
 40
1.0
 10
35.095456280702543
 20
96.805039691228643
 10
22.752415403509147
 20
106.73265197193027
 10
18.776825228070379
 20
135.80718530526335
 10
41.660710140351654
 20
148.87481688421011
 97
        2
330
C2
330
C3
 75
     0
 76
     1
 98
        0
  0
SPLINE
  5
C5
102
{ACAD_REACTORS
330
C7
102
}
100
AcDbEntity
  8
0
  6
CONTINUOUS
 62
     7
100
AcDbSpline
210
0.0
220
0.0
230
1.0
 70
     8
 71
     3
 72
     8
 73
     4
 74
     0
 42
0.0000001
 43
0.0000001
 40
0.0
 40
0.0
 40
0.0
 40
0.0
 40
1.0
 40
1.0
 40
1.0
 40
1.0
 10
201.036575052632
 20
149.63236074386037
 30
0.0
 10
187.24397400000024
 20
153.3280005859655
 30
0.0
 10
196.3807104912286
 20
92.574157235088663
 30
0.0
 10
207.60182891228132
 20
97.558795831579872
 30
0.0
  0
SPLINE
  5
C6
102
{ACAD_REACTORS
330
C7
102
}
100
AcDbEntity
  8
0
  6
CONTINUOUS
 62
     7
100
AcDbSpline
210
0.0
220
0.0
230
1.0
 70
     8
 71
     3
 72
     8
 73
     4
 74
     0
 42
0.0000001
 43
0.0000001
 40
0.0
 40
0.0
 40
0.0
 40
0.0
 40
1.0
 40
1.0
 40
1.0
 40
1.0
 10
207.60182891228132
 20
97.558795831579872
 30
0.0
 10
219.94486978947452
 20
107.48754442807116
 30
0.0
 10
223.92045996491322
 20
136.5647291649129
 30
0.0
 10
201.036575052632
 20
149.63236074386037
 30
0.0
  0
HATCH
  5
C7
100
AcDbEntity
  8
0
 62
   232
100
AcDbHatch
 10
0.0
 20
0.0
 30
0.0
210
0.0
220
0.0
230
1.0
  2
SOLID
 70
     1
 71
     1
 91
        1
 92
        1
 93
        2
 72
     4
 94
        3
 73
     0
 74
     0
 95
        8
 96
        4
 40
0.0
 40
0.0
 40
0.0
 40
0.0
 40
1.0
 40
1.0
 40
1.0
 40
1.0
 10
201.036575052632
 20
149.63236074386037
 10
187.24397400000024
 20
153.3280005859655
 10
196.3807104912286
 20
92.574157235088663
 10
207.60182891228132
 20
97.558795831579872
 72
     4
 94
        3
 73
     0
 74
     0
 95
        8
 96
        4
 40
0.0
 40
0.0
 40
0.0
 40
0.0
 40
1.0
 40
1.0
 40
1.0
 40
1.0
 10
207.60182891228132
 20
97.558795831579872
 10
219.94486978947452
 20
107.48754442807116
 10
223.92045996491322
 20
136.5647291649129
 10
201.036575052632
 20
149.63236074386037
 97
        2
330
C5
330
C6
 75
     0
 76
     1
 98
        0
  0
SPLINE
  5
C8
102
{ACAD_REACTORS
330
CA
102
}
100
AcDbEntity
  8
0
  6
CONTINUOUS
 62
     7
100
AcDbSpline
210
0.0
220
0.0
230
1.0
 70
     8
 71
     3
 72
     8
 73
     4
 74
     0
 42
0.0000001
 43
0.0000001
 40
0.0
 40
0.0
 40
0.0
 40
0.0
 40
1.0
 40
1.0
 40
1.0
 40
1.0
 10
154.17869961403491
 20
194.8728800421068
 30
0.0
 10
177.97883382456135
 20
198.89165021754533
 30
0.0
 10
197.78292417543832
 20
184.75133653333469
 30
0.0
 10
196.98371540350874
 20
158.94333232280732
 30
0.0
  0
SPLINE
  5
C9
102
{ACAD_REACTORS
330
CA
102
}
100
AcDbEntity
  8
0
  6
CONTINUOUS
 62
     7
100
AcDbSpline
210
0.0
220
0.0
230
1.0
 70
     8
 71
     3
 72
     8
 73
     4
 74
     0
 42
0.0000001
 43
0.0000001
 40
0.0
 40
0.0
 40
0.0
 40
0.0
 40
1.0
 40
1.0
 40
1.0
 40
1.0
 10
196.98371540350874
 20
158.94333232280732
 30
0.0
 10
196.20083170175388
 20
149.0494307438598
 30
0.0
 10
145.4101294385965
 20
193.39983600701888
 30
0.0
 10
154.17869961403491
 20
194.8728800421068
 30
0.0
  0
HATCH
  5
CA
100
AcDbEntity
  8
0
 62
   232
100
AcDbHatch
 10
0.0
 20
0.0
 30
0.0
210
0.0
220
0.0
230
1.0
  2
SOLID
 70
     1
 71
     1
 91
        1
 92
        1
 93
        2
 72
     4
 94
        3
 73
     0
 74
     0
 95
        8
 96
        4
 40
0.0
 40
0.0
 40
0.0
 40
0.0
 40
1.0
 40
1.0
 40
1.0
 40
1.0
 10
154.17869961403491
 20
194.8728800421068
 10
177.97883382456135
 20
198.89165021754533
 10
197.78292417543832
 20
184.75133653333469
 10
196.98371540350874
 20
158.94333232280732
 72
     4
 94
        3
 73
     0
 74
     0
 95
        8
 96
        4
 40
0.0
 40
0.0
 40
0.0
 40
0.0
 40
1.0
 40
1.0
 40
1.0
 40
1.0
 10
196.98371540350874
 20
158.94333232280732
 10
196.20083170175388
 20
149.0494307438598
 10
145.4101294385965
 20
193.39983600701888
 10
154.17869961403491
 20
194.8728800421068
 97
        2
330
C8
330
C9
 75
     0
 76
     1
 98
        0
  0
SPLINE
  5
CB
102
{ACAD_REACTORS
330
CD
102
}
100
AcDbEntity
  8
0
  6
CONTINUOUS
 62
     7
100
AcDbSpline
210
0.0
220
0.0
230
1.0
 70
     8
 71
     3
 72
     8
 73
     4
 74
     0
 42
0.0000001
 43
0.0000001
 40
0.0
 40
0.0
 40
0.0
 40
0.0
 40
1.0
 40
1.0
 40
1.0
 40
1.0
 10
88.420104877192315
 20
195.63042390175414
 30
0.0
 10
64.618076807016905
 20
199.64919407719265
 30
0.0
 10
44.815880315788888
 20
185.50585021754401
 30
0.0
 10
45.615089087718722
 20
159.70011863859696
 30
0.0
  0
SPLINE
  5
CC
102
{ACAD_REACTORS
330
CD
102
}
100
AcDbEntity
  8
0
  6
CONTINUOUS
 62
     7
100
AcDbSpline
210
0.0
220
0.0
230
1.0
 70
     8
 71
     3
 72
     8
 73
     4
 74
     0
 42
0.0000001
 43
0.0000001
 40
0.0
 40
0.0
 40
0.0
 40
0.0
 40
1.0
 40
1.0
 40
1.0
 40
1.0
 10
45.615089087718722
 20
159.70011863859696
 30
0.0
 10
46.39801066666606
 20
149.80659583157981
 30
0.0
 10
97.1886750526307
 20
194.15700109473642
 30
0.0
 10
88.420104877192315
 20
195.63042390175414
 30
0.0
  0
HATCH
  5
CD
100
AcDbEntity
  8
0
 62
   232
100
AcDbHatch
 10
0.0
 20
0.0
 30
0.0
210
0.0
220
0.0
230
1.0
  2
SOLID
 70
     1
 71
     1
 91
        1
 92
        1
 93
        2
 72
     4
 94
        3
 73
     0
 74
     0
 95
        8
 96
        4
 40
0.0
 40
0.0
 40
0.0
 40
0.0
 40
1.0
 40
1.0
 40
1.0
 40
1.0
 10
88.420104877192315
 20
195.63042390175414
 10
64.618076807016905
 20
199.64919407719265
 10
44.815880315788888
 20
185.50585021754401
 10
45.615089087718722
 20
159.70011863859696
 72
     4
 94
        3
 73
     0
 74
     0
 95
        8
 96
        4
 40
0.0
 40
0.0
 40
0.0
 40
0.0
 40
1.0
 40
1.0
 40
1.0
 40
1.0
 10
45.615089087718722
 20
159.70011863859696
 10
46.39801066666606
 20
149.80659583157981
 10
97.1886750526307
 20
194.15700109473642
 10
88.420104877192315
 20
195.63042390175414
 97
        2
330
CB
330
CC
 75
     0
 76
     1
 98
        0
  0
SPLINE
  5
CE
102
{ACAD_REACTORS
330
D3
102
}
100
AcDbEntity
  8
0
  6
CONTINUOUS
 62
     7
100
AcDbSpline
210
0.0
220
0.0
230
1.0
 70
     8
 71
     3
 72
     8
 73
     4
 74
     0
 42
0.0000001
 43
0.0000001
 40
0.0
 40
0.0
 40
0.0
 40
0.0
 40
1.0
 40
1.0
 40
1.0
 40
1.0
 10
122.60805926315768
 20
201.64910986666635
 30
0.0
 10
108.40297557894691
 20
202.01859430877161
 30
0.0
 10
94.770216280701234
 20
191.10637197192921
 30
0.0
 10
94.737263122806482
 20
184.77709302456051
 30
0.0
  0
SPLINE
  5
CF
102
{ACAD_REACTORS
330
D3
102
}
100
AcDbEntity
  8
0
  6
CONTINUOUS
 62
     7
100
AcDbSpline
210
0.0
220
0.0
230
1.0
 70
     8
 71
     3
 72
     8
 73
     4
 74
     0
 42
0.0000001
 43
0.0000001
 40
0.0
 40
0.0
 40
0.0
 40
0.0
 40
1.0
 40
1.0
 40
1.0
 40
1.0
 10
94.737263122806482
 20
184.77709302456051
 30
0.0
 10
94.697636003508237
 20
177.0865077614024
 30
0.0
 10
105.96822961403481
 20
169.21221811227949
 30
0.0
 10
122.70464610526291
 20
169.01260530526196
 30
0.0
  0
SPLINE
  5
D0
102
{ACAD_REACTORS
330
D3
102
}
100
AcDbEntity
  8
0
  6
CONTINUOUS
 62
     7
100
AcDbSpline
210
0.0
220
0.0
230
1.0
 70
     8
 71
     3
 72
     8
 73
     4
 74
     0
 42
0.0000001
 43
0.0000001
 40
0.0
 40
0.0
 40
0.0
 40
0.0
 40
1.0
 40
1.0
 40
1.0
 40
1.0
 10
122.70464610526291
 20
169.01260530526196
 30
0.0
 10
139.79597189473648
 20
168.89018242982334
 30
0.0
 10
150.70195207017525
 20
175.31537021754281
 30
0.0
 10
150.75687399999967
 20
183.25215723508674
 30
0.0
  0
SPLINE
  5
D1
102
{ACAD_REACTORS
330
D3
102
}
100
AcDbEntity
  8
0
  6
CONTINUOUS
 62
     7
100
AcDbSpline
210
0.0
220
0.0
230
1.0
 70
     8
 71
     3
 72
     8
 73
     4
 74
     0
 42
0.0000001
 43
0.0000001
 40
0.0
 40
0.0
 40
0.0
 40
0.0
 40
1.0
 40
1.0
 40
1.0
 40
1.0
 10
150.75687399999967
 20
183.25215723508674
 30
0.0
 10
150.81931076491207
 20
192.24420284912219
 30
0.0
 10
135.21245277192941
 20
201.7881191649119
 30
0.0
 10
122.60768049122777
 20
201.64948863859615
 30
0.0
  0
LINE
  5
D2
102
{ACAD_REACTORS
330
D3
102
}
100
AcDbEntity
  8
0
  6
CONTINUOUS
 62
     7
100
AcDbLine
 10
122.60768
 20
201.649489
 30
0.0
 11
122.608059
 21
201.64911
 31
0.0
  0
HATCH
  5
D3
100
AcDbEntity
  8
0
 62
   232
100
AcDbHatch
 10
0.0
 20
0.0
 30
0.0
210
0.0
220
0.0
230
1.0
  2
SOLID
 70
     1
 71
     1
 91
        1
 92
        1
 93
        5
 72
     4
 94
        3
 73
     0
 74
     0
 95
        8
 96
        4
 40
0.0
 40
0.0
 40
0.0
 40
0.0
 40
1.0
 40
1.0
 40
1.0
 40
1.0
 10
122.60805926315768
 20
201.64910986666635
 10
108.40297557894691
 20
202.01859430877161
 10
94.770216280701234
 20
191.10637197192921
 10
94.737263122806482
 20
184.77709302456051
 72
     4
 94
        3
 73
     0
 74
     0
 95
        8
 96
        4
 40
0.0
 40
0.0
 40
0.0
 40
0.0
 40
1.0
 40
1.0
 40
1.0
 40
1.0
 10
94.737263122806482
 20
184.77709302456051
 10
94.697636003508237
 20
177.0865077614024
 10
105.96822961403481
 20
169.21221811227949
 10
122.70464610526291
 20
169.01260530526196
 72
     4
 94
        3
 73
     0
 74
     0
 95
        8
 96
        4
 40
0.0
 40
0.0
 40
0.0
 40
0.0
 40
1.0
 40
1.0
 40
1.0
 40
1.0
 10
122.70464610526291
 20
169.01260530526196
 10
139.79597189473648
 20
168.89018242982334
 10
150.70195207017525
 20
175.31537021754281
 10
150.75687399999967
 20
183.25215723508674
 72
     4
 94
        3
 73
     0
 74
     0
 95
        8
 96
        4
 40
0.0
 40
0.0
 40
0.0
 40
0.0
 40
1.0
 40
1.0
 40
1.0
 40
1.0
 10
150.75687399999967
 20
183.25215723508674
 10
150.81931076491207
 20
192.24420284912219
 10
135.21245277192941
 20
201.7881191649119
 10
122.60768049122777
 20
201.64948863859615
 72
     1
 10
122.60768049122777
 20
201.64948863859615
 11
122.60805926315768
 21
201.64910986666635
 97
        5
330
CE
330
CF
330
D0
330
D1
330
D2
 75
     0
 76
     1
 98
        0
  0
SPLINE
  5
D4
102
{ACAD_REACTORS
330
D8
102
}
100
AcDbEntity
  8
0
  6
CONTINUOUS
 62
     7
100
AcDbSpline
210
0.0
220
0.0
230
1.0
 70
     8
 71
     3
 72
     8
 73
     4
 74
     0
 42
0.0000001
 43
0.0000001
 40
0.0
 40
0.0
 40
0.0
 40
0.0
 40
1.0
 40
1.0
 40
1.0
 40
1.0
 10
123.47544698245684
 20
43.943629164911762
 30
0.0
 10
135.86015277193013
 20
44.484174585964382
 30
0.0
 10
152.47839242105294
 20
39.954403199999611
 30
0.0
 10
152.51096680701812
 20
33.945565305263059
 30
0.0
  0
SPLINE
  5
D5
102
{ACAD_REACTORS
330
D8
102
}
100
AcDbEntity
  8
0
  6
CONTINUOUS
 62
     7
100
AcDbSpline
210
0.0
220
0.0
230
1.0
 70
     8
 71
     3
 72
     8
 73
     4
 74
     0
 42
0.0000001
 43
0.0000001
 40
0.0
 40
0.0
 40
0.0
 40
0.0
 40
1.0
 40
1.0
 40
1.0
 40
1.0
 10
152.51096680701812
 20
33.945565305263059
 30
0.0
 10
152.71652633333363
 20
28.11058372631577
 30
0.0
 10
137.43963171929843
 20
14.927047936842696
 30
0.0
 10
122.65389066666752
 20
15.181961445614604
 30
0.0
  0
SPLINE
  5
D6
102
{ACAD_REACTORS
330
D8
102
}
100
AcDbEntity
  8
0
  6
CONTINUOUS
 62
     7
100
AcDbSpline
210
0.0
220
0.0
230
1.0
 70
     8
 71
     3
 72
     8
 73
     4
 74
     0
 42
0.0000001
 43
0.0000001
 40
0.0
 40
0.0
 40
0.0
 40
0.0
 40
1.0
 40
1.0
 40
1.0
 40
1.0
 10
122.65389066666752
 20
15.181961445614604
 30
0.0
 10
107.34127785965002
 20
14.521421077193601
 30
0.0
 10
92.326001017544598
 20
27.72537267368439
 30
0.0
 10
92.522583649123561
 20
32.302073901754206
 30
0.0
  0
SPLINE
  5
D7
102
{ACAD_REACTORS
330
D8
102
}
100
AcDbEntity
  8
0
  6
CONTINUOUS
 62
     7
100
AcDbSpline
210
0.0
220
0.0
230
1.0
 70
     8
 71
     3
 72
     8
 73
     4
 74
     0
 42
0.0000001
 43
0.0000001
 40
0.0
 40
0.0
 40
0.0
 40
0.0
 40
1.0
 40
1.0
 40
1.0
 40
1.0
 10
92.522583649123561
 20
32.302073901754206
 30
0.0
 10
92.293403905263901
 20
39.012397410526013
 30
0.0
 10
111.16801066666706
 20
44.25157074385924
 30
0.0
 10
123.47544698245684
 20
43.943629164911762
 30
0.0
  0
HATCH
  5
D8
100
AcDbEntity
  8
0
 62
   232
100
AcDbHatch
 10
0.0
 20
0.0
 30
0.0
210
0.0
220
0.0
230
1.0
  2
SOLID
 70
     1
 71
     1
 91
        1
 92
        1
 93
        4
 72
     4
 94
        3
 73
     0
 74
     0
 95
        8
 96
        4
 40
0.0
 40
0.0
 40
0.0
 40
0.0
 40
1.0
 40
1.0
 40
1.0
 40
1.0
 10
123.47544698245684
 20
43.943629164911762
 10
135.86015277193013
 20
44.484174585964382
 10
152.47839242105294
 20
39.954403199999611
 10
152.51096680701812
 20
33.945565305263059
 72
     4
 94
        3
 73
     0
 74
     0
 95
        8
 96
        4
 40
0.0
 40
0.0
 40
0.0
 40
0.0
 40
1.0
 40
1.0
 40
1.0
 40
1.0
 10
152.51096680701812
 20
33.945565305263059
 10
152.71652633333363
 20
28.11058372631577
 10
137.43963171929843
 20
14.927047936842696
 10
122.65389066666752
 20
15.181961445614604
 72
     4
 94
        3
 73
     0
 74
     0
 95
        8
 96
        4
 40
0.0
 40
0.0
 40
0.0
 40
0.0
 40
1.0
 40
1.0
 40
1.0
 40
1.0
 10
122.65389066666752
 20
15.181961445614604
 10
107.34127785965002
 20
14.521421077193601
 10
92.326001017544598
 20
27.72537267368439
 10
92.522583649123561
 20
32.302073901754206
 72
     4
 94
        3
 73
     0
 74
     0
 95
        8
 96
        4
 40
0.0
 40
0.0
 40
0.0
 40
0.0
 40
1.0
 40
1.0
 40
1.0
 40
1.0
 10
92.522583649123561
 20
32.302073901754206
 10
92.293403905263901
 20
39.012397410526013
 10
111.16801066666706
 20
44.25157074385924
 10
123.47544698245684
 20
43.943629164911762
 97
        4
330
D4
330
D5
330
D6
330
D7
 75
     0
 76
     1
 98
        0
  0
SPLINE
  5
D9
102
{ACAD_REACTORS
330
DE
102
}
100
AcDbEntity
  8
0
  6
CONTINUOUS
 62
     7
100
AcDbSpline
210
0.0
220
0.0
230
1.0
 70
     8
 71
     3
 72
     8
 73
     4
 74
     0
 42
0.0000001
 43
0.0000001
 40
0.0
 40
0.0
 40
0.0
 40
0.0
 40
1.0
 40
1.0
 40
1.0
 40
1.0
 10
77.731161017544125
 20
79.555766007017226
 30
0.0
 10
86.548592771929918
 20
68.932728463157531
 30
0.0
 10
90.568120491228086
 20
50.269499164911863
 30
0.0
 10
83.209718210526688
 20
44.767836884210183
 30
0.0
  0
SPLINE
  5
DA
102
{ACAD_REACTORS
330
DE
102
}
100
AcDbEntity
  8
0
  6
CONTINUOUS
 62
     7
100
AcDbSpline
210
0.0
220
0.0
230
1.0
 70
     8
 71
     3
 72
     8
 73
     4
 74
     0
 42
0.0000001
 43
0.0000001
 40
0.0
 40
0.0
 40
0.0
 40
0.0
 40
1.0
 40
1.0
 40
1.0
 40
1.0
 10
83.209718210526688
 20
44.767836884210183
 30
0.0
 10
76.248268912280764
 20
40.568013726315435
 30
0.0
 10
59.34254136842177
 20
42.297637866666271
 30
0.0
 10
47.326380666667312
 20
59.559638287719181
 30
0.0
  0
SPLINE
  5
DB
102
{ACAD_REACTORS
330
DE
102
}
100
AcDbEntity
  8
0
  6
CONTINUOUS
 62
     7
100
AcDbSpline
210
0.0
220
0.0
230
1.0
 70
     8
 71
     3
 72
     8
 73
     4
 74
     0
 42
0.0000001
 43
0.0000001
 40
0.0
 40
0.0
 40
0.0
 40
0.0
 40
1.0
 40
1.0
 40
1.0
 40
1.0
 10
47.326380666667312
 20
59.559638287719181
 30
0.0
 10
39.222555228070902
 20
74.044634428069699
 30
0.0
 10
40.266829438597199
 20
88.78454407719282
 30
0.0
 10
45.956779245614889
 20
93.114664778947343
 30
0.0
  0
SPLINE
  5
DC
102
{ACAD_REACTORS
330
DE
102
}
100
AcDbEntity
  8
0
  6
CONTINUOUS
 62
     7
100
AcDbSpline
210
0.0
220
0.0
230
1.0
 70
     8
 71
     3
 72
     8
 73
     4
 74
     0
 42
0.0000001
 43
0.0000001
 40
0.0
 40
0.0
 40
0.0
 40
0.0
 40
1.0
 40
1.0
 40
1.0
 40
1.0
 10
45.956779245614889
 20
93.114664778947343
 30
0.0
 10
54.465511877193492
 20
98.297779866666389
 30
0.0
 10
67.612306789474061
 20
91.296938287719314
 30
0.0
 10
77.731577666666951
 20
79.555766007017226
 30
0.0
  0
LINE
  5
DD
102
{ACAD_REACTORS
330
DE
102
}
100
AcDbEntity
  8
0
  6
CONTINUOUS
 62
     7
100
AcDbLine
 10
77.731578
 20
79.555766
 30
0.0
 11
77.731161
 21
79.555766
 31
0.0
  0
HATCH
  5
DE
100
AcDbEntity
  8
0
 62
   232
100
AcDbHatch
 10
0.0
 20
0.0
 30
0.0
210
0.0
220
0.0
230
1.0
  2
SOLID
 70
     1
 71
     1
 91
        1
 92
        1
 93
        5
 72
     4
 94
        3
 73
     0
 74
     0
 95
        8
 96
        4
 40
0.0
 40
0.0
 40
0.0
 40
0.0
 40
1.0
 40
1.0
 40
1.0
 40
1.0
 10
77.731161017544125
 20
79.555766007017226
 10
86.548592771929918
 20
68.932728463157531
 10
90.568120491228086
 20
50.269499164911863
 10
83.209718210526688
 20
44.767836884210183
 72
     4
 94
        3
 73
     0
 74
     0
 95
        8
 96
        4
 40
0.0
 40
0.0
 40
0.0
 40
0.0
 40
1.0
 40
1.0
 40
1.0
 40
1.0
 10
83.209718210526688
 20
44.767836884210183
 10
76.248268912280764
 20
40.568013726315435
 10
59.34254136842177
 20
42.297637866666271
 10
47.326380666667312
 20
59.559638287719181
 72
     4
 94
        3
 73
     0
 74
     0
 95
        8
 96
        4
 40
0.0
 40
0.0
 40
0.0
 40
0.0
 40
1.0
 40
1.0
 40
1.0
 40
1.0
 10
47.326380666667312
 20
59.559638287719181
 10
39.222555228070902
 20
74.044634428069699
 10
40.266829438597199
 20
88.78454407719282
 10
45.956779245614889
 20
93.114664778947343
 72
     4
 94
        3
 73
     0
 74
     0
 95
        8
 96
        4
 40
0.0
 40
0.0
 40
0.0
 40
0.0
 40
1.0
 40
1.0
 40
1.0
 40
1.0
 10
45.956779245614889
 20
93.114664778947343
 10
54.465511877193492
 20
98.297779866666389
 10
67.612306789474061
 20
91.296938287719314
 10
77.731577666666951
 20
79.555766007017226
 72
     1
 10
77.731577666666951
 20
79.555766007017226
 11
77.731161017544125
 21
79.555766007017226
 97
        5
330
D9
330
DA
330
DB
330
DC
330
DD
 75
     0
 76
     1
 98
        0
  0
SPLINE
  5
DF
102
{ACAD_REACTORS
330
E4
102
}
100
AcDbEntity
  8
0
  6
CONTINUOUS
 62
     7
100
AcDbSpline
210
0.0
220
0.0
230
1.0
 70
     8
 71
     3
 72
     8
 73
     4
 74
     0
 42
0.0000001
 43
0.0000001
 40
0.0
 40
0.0
 40
0.0
 40
0.0
 40
1.0
 40
1.0
 40
1.0
 40
1.0
 10
167.45465575438652
 20
82.923048463158025
 30
0.0
 10
157.91452715789524
 20
71.748518989473581
 30
0.0
 10
152.60225084210569
 20
51.367558989473466
 30
0.0
 10
159.56180628070229
 20
44.803441445613856
 30
0.0
  0
SPLINE
  5
E0
102
{ACAD_REACTORS
330
E4
102
}
100
AcDbEntity
  8
0
  6
CONTINUOUS
 62
     7
100
AcDbSpline
210
0.0
220
0.0
230
1.0
 70
     8
 71
     3
 72
     8
 73
     4
 74
     0
 42
0.0000001
 43
0.0000001
 40
0.0
 40
0.0
 40
0.0
 40
0.0
 40
1.0
 40
1.0
 40
1.0
 40
1.0
 10
159.56180628070229
 20
44.803441445613856
 30
0.0
 10
166.21607154386018
 20
39.703656182455887
 30
0.0
 10
184.07933452631656
 20
40.416504954385758
 30
0.0
 10
197.27461224561492
 20
58.725582498245444
 30
0.0
  0
SPLINE
  5
E1
102
{ACAD_REACTORS
330
E4
102
}
100
AcDbEntity
  8
0
  6
CONTINUOUS
 62
     7
100
AcDbSpline
210
0.0
220
0.0
230
1.0
 70
     8
 71
     3
 72
     8
 73
     4
 74
     0
 42
0.0000001
 43
0.0000001
 40
0.0
 40
0.0
 40
0.0
 40
0.0
 40
1.0
 40
1.0
 40
1.0
 40
1.0
 10
197.27461224561492
 20
58.725582498245444
 30
0.0
 10
206.85602698245731
 20
71.022413200000116
 30
0.0
 10
203.64555610526403
 20
91.558290919298472
 30
0.0
 10
198.17260473684291
 20
97.011849164913002
 30
0.0
  0
SPLINE
  5
E2
102
{ACAD_REACTORS
330
E4
102
}
100
AcDbEntity
  8
0
  6
CONTINUOUS
 62
     7
100
AcDbSpline
210
0.0
220
0.0
230
1.0
 70
     8
 71
     3
 72
     8
 73
     4
 74
     0
 42
0.0000001
 43
0.0000001
 40
0.0
 40
0.0
 40
0.0
 40
0.0
 40
1.0
 40
1.0
 40
1.0
 40
1.0
 10
198.17260473684291
 20
97.011849164913002
 30
0.0
 10
190.04264403508881
 20
103.30022074386005
 30
0.0
 10
178.37154456140399
 20
95.252491428070797
 30
0.0
 10
167.45458000000056
 20
82.926078638596636
 30
0.0
  0
LINE
  5
E3
102
{ACAD_REACTORS
330
E4
102
}
100
AcDbEntity
  8
0
  6
CONTINUOUS
 62
     7
100
AcDbLine
 10
167.45458
 20
82.926079
 30
0.0
 11
167.454656
 21
82.923048
 31
0.0
  0
HATCH
  5
E4
100
AcDbEntity
  8
0
 62
   232
100
AcDbHatch
 10
0.0
 20
0.0
 30
0.0
210
0.0
220
0.0
230
1.0
  2
SOLID
 70
     1
 71
     1
 91
        1
 92
        1
 93
        5
 72
     4
 94
        3
 73
     0
 74
     0
 95
        8
 96
        4
 40
0.0
 40
0.0
 40
0.0
 40
0.0
 40
1.0
 40
1.0
 40
1.0
 40
1.0
 10
167.45465575438652
 20
82.923048463158025
 10
157.91452715789524
 20
71.748518989473581
 10
152.60225084210569
 20
51.367558989473466
 10
159.56180628070229
 20
44.803441445613856
 72
     4
 94
        3
 73
     0
 74
     0
 95
        8
 96
        4
 40
0.0
 40
0.0
 40
0.0
 40
0.0
 40
1.0
 40
1.0
 40
1.0
 40
1.0
 10
159.56180628070229
 20
44.803441445613856
 10
166.21607154386018
 20
39.703656182455887
 10
184.07933452631656
 20
40.416504954385758
 10
197.27461224561492
 20
58.725582498245444
 72
     4
 94
        3
 73
     0
 74
     0
 95
        8
 96
        4
 40
0.0
 40
0.0
 40
0.0
 40
0.0
 40
1.0
 40
1.0
 40
1.0
 40
1.0
 10
197.27461224561492
 20
58.725582498245444
 10
206.85602698245731
 20
71.022413200000116
 10
203.64555610526403
 20
91.558290919298472
 10
198.17260473684291
 20
97.011849164913002
 72
     4
 94
        3
 73
     0
 74
     0
 95
        8
 96
        4
 40
0.0
 40
0.0
 40
0.0
 40
0.0
 40
1.0
 40
1.0
 40
1.0
 40
1.0
 10
198.17260473684291
 20
97.011849164913002
 10
190.04264403508881
 20
103.30022074386005
 10
178.37154456140399
 20
95.252491428070797
 10
167.45458000000056
 20
82.926078638596636
 72
     1
 10
167.45458000000056
 20
82.926078638596636
 11
167.45465575438652
 21
82.923048463158025
 97
        5
330
DF
330
E0
330
E1
330
E2
330
E3
 75
     0
 76
     1
 98
        0
  0
ENDBLK
  5
E5
100
AcDbEntity
  8
0
100
AcDbBlockEnd
  0
BLOCK
  5
E7
100
AcDbEntity
  8
0
100
AcDbBlockBegin
  2
RASPI-PGB001
 70
     0
 10
0.0
 20
0.0
 30
0.0
  3
RASPI-PGB001
  1

  0
ENDBLK
  5
E8
100
AcDbEntity
  8
0
100
AcDbBlockEnd
  0
ENDSEC
  0
SECTION
  2
ENTITIES
  0
LWPOLYLINE
  5
31
100
AcDbEntity
  8
0
  6
CONTINUOUS
 62
     7
100
AcDbPolyline
 90
        4
 70
     1
 10
0.042333
 20
0.042333
 10
150.042333
 20
0.042333
 10
150.042333
 20
105.042333
 10
0.042333
 20
105.042333
  0
LWPOLYLINE
  5
32
102
{ACAD_REACTORS
330
33
102
}
100
AcDbEntity
  8
0
  6
CONTINUOUS
 62
     7
100
AcDbPolyline
 90
        4
 70
     1
 10
189.042333
 20
65.042333
 10
290.042333
 20
65.042333
 10
290.042333
 20
135.042333
 10
189.042333
 20
135.042333
  0
HATCH
  5
33
100
AcDbEntity
  8
0
 62
   151
100
AcDbHatch
 10
0.0
 20
0.0
 30
0.0
210
0.0
220
0.0
230
1.0
  2
SOLID
 70
     1
 71
     1
 91
        1
 92
        3
 72
     0
 73
     1
 93
        4
 10
189.04233333333312
 20
65.042333333333616
 10
290.04233333333315
 20
65.042333333333616
 10
290.04233333333315
 20
135.04233333333363
 10
189.04233333333312
 20
135.04233333333363
 97
        1
330
32
 75
     0
 76
     1
 98
        0
  0
MTEXT
  5
34
100
AcDbEntity
  8
0
100
AcDbMText
 10
239.542333
 20
100.042333
 30
0.0
 40
2.116659
 41
101.0
 71
     5
 72
     5
  1
\C7;\fCalibri|b0|i0|;\H2.1166585922241;2.5" HD
  0
LWPOLYLINE
  5
35
100
AcDbEntity
  8
0
  6
CONTINUOUS
 62
     7
100
AcDbPolyline
 90
        2
 70
     1
 10
9.617333
 20
11.417333
 42
-1.0
 10
12.367333
 20
11.417333
 42
-1.0
  0
LWPOLYLINE
  5
36
100
AcDbEntity
  8
0
  6
CONTINUOUS
 62
     7
100
AcDbPolyline
 90
        2
 70
     1
 10
9.617333
 20
60.317333
 42
-1.0
 10
12.367333
 20
60.317333
 42
-1.0
  0
LWPOLYLINE
  5
37
100
AcDbEntity
  8
0
  6
CONTINUOUS
 62
     7
100
AcDbPolyline
 90
        2
 70
     1
 10
67.692333
 20
60.317333
 42
-1.0
 10
70.442333
 20
60.317333
 42
-1.0
  0
LWPOLYLINE
  5
38
100
AcDbEntity
  8
0
  6
CONTINUOUS
 62
     7
100
AcDbPolyline
 90
        2
 70
     1
 10
67.717333
 20
11.417333
 42
-1.0
 10
70.467333
 20
11.417333
 42
-1.0
  0
ENDSEC
  0
SECTION
  2
OBJECTS
  0
DICTIONARY
  5
C
100
AcDbDictionary
  3
ACAD_GROUP
350
D
  3
ACAD_MLINESTYLE
350
1B
  0
DICTIONARY
  5
D
102
{ACAD_REACTORS
330
C
102
}
100
AcDbDictionary
  0
DICTIONARY
  5
1B
102
{ACAD_REACTORS
330
C
102
}
100
AcDbDictionary
  3
STANDARD
350
1C
  0
MLINESTYLE
  5
1C
102
{ACAD_REACTORS
330
1B
102
}
100
AcDbMlineStyle
  2
STANDARD
 70
     0
  3

 62
   256
 51
90.0
 52
90.0
 71
     2
 49
0.5
 62
   256
  6
BYLAYER
 49
-0.5
 62
   256
  6
BYLAYER
  0
DICTIONARY
  5
29
102
{ACAD_REACTORS
330
C
102
}
100
AcDbDictionary
  3
MODEL
350
2A
  3
LAYOUT1
350
2B
  0
DICTIONARY
  5
2C
102
{ACAD_REACTORS
330
C
102
}
100
AcDbDictionary
  0
ENDSEC
  0
EOF
